999
dxflib 2.0.4.8
  0
SECTION
  2
HEADER
  9
$ACADVER
  1
AC1015
  9
$HANDSEED
  5
FFFF
  9
$USERR4
 40
0.0
  9
$DIMTDEC
 70
2
  9
$DIMTAD
 70
1
  9
$CMLSTYLE
  2
STANDARD
  9
$VISRETAIN
 70
1
  9
$TILEMODE
 70
1
  9
$SHADEDIF
 70
70
  9
$USERR5
 40
0.0
  9
$UCSYDIR
 10
0.0
 20
1.0
 30
0.0
  9
$ATTREQ
 70
1
  9
$CHAMFERA
 40
10.0
  9
$MENU
  1
.
  9
$DIMUNIT
 70
2
  9
$DIMALTZ
 70
0
  9
$DELOBJ
 70
1
  9
$CLAYER
  8
0
  9
$DIMASZ
 40
2.5
  9
$GRIDUNIT
 10
0.0
 20
0.0
  9
$DIMADEC
 70
0
  9
$UCSXDIR
 10
1.0
 20
0.0
 30
0.0
  9
$CHAMFERB
 40
10.0
  9
$DIMUPT
 70
0
  9
$TRACEWID
 40
1.0
  9
$REGENMODE
 70
1
  9
$ORTHOMODE
 70
0
  9
$EXTMIN
 10
0.0
 20
0.0
 30
0.0
  9
$DIMGAP
 40
0.625
  9
$MEASUREMENT
 70
1
  9
$CMLJUST
 70
0
  9
$PICKSTYLE
 70
1
  9
$PUCSYDIR
 10
0.0
 20
1.0
 30
0.0
  9
$ANGBASE
 50
0.0
  9
$USRTIMER
 70
1
  9
$CHAMFERC
 40
20.0
  9
$SKETCHINC
 40
1.0
  9
$DIMTFAC
 40
1.0
  9
$DIMSAH
 70
0
  9
$DIMALT
 70
0
  9
$DIMSHO
 70
1
  9
$PUCSXDIR
 10
1.0
 20
0.0
 30
0.0
  9
$SURFTYPE
 70
6
  9
$SPLFRAME
 70
0
  9
$CHAMFERD
 40
0.0
  9
$DIMALTTD
 70
3
  9
$DIMTSZ
 40
0.0
  9
$LIMMIN
 10
0.0
 20
0.0
  9
$SPLINESEGS
 70
8
  9
$AUPREC
 70
0
  9
$LUNITS
 70
2
  9
$SURFTAB1
 70
6
  9
$DWGCODEPAGE
  3
ANSI_1252
  9
$UNITMODE
 70
0
  9
$USERI1
 70
0
  9
$SURFTAB2
 70
6
  9
$SKPOLY
 70
0
  9
$ELEVATION
 40
0.0
  9
$DIMCEN
 40
2.5
  9
$DIMRND
 40
0.0
  9
$INSBASE
 10
0.0
 20
0.0
 30
0.0
  9
$DIMEXO
 40
0.625
  9
$INSUNITS
 70
4
  9
$USERI2
 70
0
  9
$UCSORG
 10
0.0
 20
0.0
 30
0.0
  9
$PELEVATION
 40
0.0
  9
$TEXTSIZE
 40
2.5
  9
$DRAGMODE
 70
2
  9
$FILLMODE
 70
1
  9
$EXTMAX
 10
420.0
 20
297.0
 30
0.0
  9
$USERI3
 70
0
  9
$SURFU
 70
6
  9
$ANGDIR
 70
0
  9
$TDUSRTIMER
 40
0.0000000116
  9
$DIMTZIN
 70
8
  9
$DIMTOLJ
 70
0
  9
$DIMZIN
 70
8
  9
$DIMDLE
 40
0.0
  9
$DIMSCALE
 40
1.0
  9
$DIMLUNIT
 70
2
  9
$WORLDVIEW
 70
1
  9
$USERI4
 70
0
  9
$SURFV
 70
6
  9
$DIMALTTZ
 70
0
  9
$DIMJUST
 70
0
  9
$OSMODE
 70
37
  9
$QTEXTMODE
 70
0
  9
$LIMMAX
 10
420.0
 20
297.0
  9
$ACADMAINTVER
 70
9
  9
$DIMTXT
 40
2.5
  9
$GRIDMODE
 70
1
  9
$PROXYGRAPHICS
 70
1
  9
$USERI5
 70
0
  9
$HANDLING
 70
1
  9
$PDMODE
 70
0
  9
$LIMCHECK
 70
0
  9
$THICKNESS
 40
0.0
  9
$DIMSE1
 70
0
  9
$DIMLIM
 70
0
  9
$ATTMODE
 70
1
  9
$LUPREC
 70
4
  9
$PEXTMAX
 10
-100000000000000000000.0
 20
-100000000000000000000.0
 30
-100000000000000000000.0
  9
$PEXTMIN
 10
100000000000000000000.0
 20
100000000000000000000.0
 30
100000000000000000000.0
  9
$PUCSORG
 10
0.0
 20
0.0
 30
0.0
  9
$SPLINETYPE
 70
6
  9
$TDINDWG
 40
0.0000000116
  9
$DIMSOXD
 70
0
  9
$DIMLFAC
 40
1.0
  9
$DIMSE2
 70
0
  9
$DIMTOH
 70
0
  9
$CELTYPE
  6
BYLAYER
  9
$PSVPSCALE
 40
0.6271531594983999
  9
$PLIMCHECK
 70
0
  9
$PLINEWID
 40
0.0
  9
$DIMSTYLE
  2
ISO-25
  9
$DIMTVP
 40
0.0
  9
$DIMASO
 70
1
  9
$DIMTM
 40
0.0
  9
$DIMDLI
 40
3.75
  9
$DISPSILH
 70
0
  9
$CECOLOR
 62
256
  9
$PLIMMAX
 10
297.0
 20
210.0
  9
$PLIMMIN
 10
0.0
 20
0.0
  9
$TREEDEPTH
 70
3020
  9
$MAXACTVP
 70
64
  9
$TDUPDATE
 40
2451930.8125
  9
$FILLETRAD
 40
10.0
  9
$DIMALTU
 70
2
  9
$DIMDEC
 70
2
  9
$DIMCLRT
 70
0
  9
$DIMALTD
 70
3
  9
$DIMTIH
 70
0
  9
$LTSCALE
 40
1.0
  9
$PINSBASE
 10
16.7978460749338012
 20
12.4999999999999858
 30
0.0
  9
$DIMEXE
 40
1.25
  9
$CMLSCALE
 40
20.0
  9
$USERR1
 40
0.0
  9
$ATTDIA
 70
0
  9
$PDSIZE
 40
0.0
  9
$DIMTXSTY
  7
STANDARD
  9
$DIMCLRD
 70
0
  9
$CELTSCALE
 40
1.0
  9
$DIMAUNIT
 70
0
  9
$PSLTSCALE
 70
1
  9
$PLINEGEN
 70
0
  9
$SHADEDGE
 70
3
  9
$USERR2
 40
0.0
  9
$COORDS
 70
1
  9
$TDCREATE
 40
2451930.5833333330228925
  9
$DIMFIT
 70
3
  9
$DIMSD1
 70
0
  9
$DIMCLRE
 70
0
  9
$DIMTOFL
 70
1
  9
$DIMALTF
 40
0.03937007874016
  9
$DIMTOL
 70
0
  9
$DIMTP
 40
0.0
  9
$TEXTSTYLE
  7
STANDARD
  9
$AUNITS
 70
0
  9
$USERR3
 40
0.0
  9
$DIMSD2
 70
0
  9
$DIMTIX
 70
0
  9
$MIRRTEXT
 70
1
  0
ENDSEC
  0
SECTION
  2
TABLES
  0
TABLE
  2
VPORT
  5
8
100
AcDbSymbolTable
 70
1
  0
VPORT
  5
30
100
AcDbSymbolTableRecord
100
AcDbViewportTableRecord
  2
*Active
 70
0
 10
0.0
 20
0.0
 11
1.0
 21
1.0
 12
286.3055555555554861
 22
148.5
 13
0.0
 23
0.0
 14
10.0
 24
10.0
 15
10.0
 25
10.0
 16
0.0
 26
0.0
 36
1.0
 17
0.0
 27
0.0
 37
0.0
 40
297.0
 41
1.92798353909465
 42
50.0
 43
0.0
 44
0.0
 50
0.0
 51
0.0
 71
0
 72
100
 73
1
 74
3
 75
1
 76
1
 77
0
 78
0
281
0
 65
1
110
0.0
120
0.0
130
0.0
111
1.0
121
0.0
131
0.0
112
0.0
122
1.0
132
0.0
 79
0
146
0.0
  0
ENDTAB
  0
TABLE
  2
LTYPE
  5
5
100
AcDbSymbolTable
 70
21
  0
LTYPE
  5
14
100
AcDbSymbolTableRecord
100
AcDbLinetypeTableRecord
  2
ByBlock
 70
0
  3

 72
65
 73
0
 40
0.0
  0
LTYPE
  5
15
100
AcDbSymbolTableRecord
100
AcDbLinetypeTableRecord
  2
ByLayer
 70
0
  3

 72
65
 73
0
 40
0.0
  0
LTYPE
  5
16
100
AcDbSymbolTableRecord
100
AcDbLinetypeTableRecord
  2
CONTINUOUS
 70
0
  3
Solid line
 72
65
 73
0
 40
0.0
  0
LTYPE
  5
31
100
AcDbSymbolTableRecord
100
AcDbLinetypeTableRecord
  2
DOT
 70
0
  3
Dot . . . . . . . . . . . . . . . . . . . . . .
 72
65
 73
2
 40
6.3499999999999996
 49
0.0
 74
0
 49
-6.3499999999999996
 74
0
  0
LTYPE
  5
32
100
AcDbSymbolTableRecord
100
AcDbLinetypeTableRecord
  2
DOT2
 70
0
  3
Dot (.5x) .....................................
 72
65
 73
2
 40
3.1749999999999998
 49
0.0
 74
0
 49
-3.1749999999999998
 74
0
  0
LTYPE
  5
33
100
AcDbSymbolTableRecord
100
AcDbLinetypeTableRecord
  2
DOTX2
 70
0
  3
Dot (2x) .  .  .  .  .  .  .  .  .  .  .  .  .
 72
65
 73
2
 40
12.6999999999999993
 49
0.0
 74
0
 49
-12.6999999999999993
 74
0
  0
LTYPE
  5
34
100
AcDbSymbolTableRecord
100
AcDbLinetypeTableRecord
  2
DASHED
 70
0
  3
Dashed __ __ __ __ __ __ __ __ __ __ __ __ __ _
 72
65
 73
2
 40
19.0500000000000007
 49
12.6999999999999993
 74
0
 49
-6.3499999999999996
 74
0
  0
LTYPE
  5
35
100
AcDbSymbolTableRecord
100
AcDbLinetypeTableRecord
  2
DASHED2
 70
0
  3
Dashed (.5x) _ _ _ _ _ _ _ _ _ _ _ _ _ _ _ _ _
 72
65
 73
2
 40
9.5250000000000004
 49
6.3499999999999996
 74
0
 49
-3.1749999999999998
 74
0
  0
LTYPE
  5
36
100
AcDbSymbolTableRecord
100
AcDbLinetypeTableRecord
  2
DASHEDX2
 70
0
  3
Dashed (2x) ____  ____  ____  ____  ____  ___
 72
65
 73
2
 40
38.1000000000000014
 49
25.3999999999999986
 74
0
 49
-12.6999999999999993
 74
0
  0
LTYPE
  5
37
100
AcDbSymbolTableRecord
100
AcDbLinetypeTableRecord
  2
DASHDOT
 70
0
  3
Dash dot __ . __ . __ . __ . __ . __ . __ . __
 72
65
 73
4
 40
25.3999999999999986
 49
12.6999999999999993
 74
0
 49
-6.3499999999999996
 74
0
 49
0.0
 74
0
 49
-6.3499999999999996
 74
0
  0
LTYPE
  5
38
100
AcDbSymbolTableRecord
100
AcDbLinetypeTableRecord
  2
DASHDOT2
 70
0
  3
Dash dot (.5x) _._._._._._._._._._._._._._._.
 72
65
 73
4
 40
12.6999999999999993
 49
6.3499999999999996
 74
0
 49
-3.1749999999999998
 74
0
 49
0.0
 74
0
 49
-3.1749999999999998
 74
0
  0
LTYPE
  5
39
100
AcDbSymbolTableRecord
100
AcDbLinetypeTableRecord
  2
DASHDOTX2
 70
0
  3
Dash dot (2x) ____  .  ____  .  ____  .  ___
 72
65
 73
4
 40
50.7999999999999972
 49
25.3999999999999986
 74
0
 49
-12.6999999999999993
 74
0
 49
0.0
 74
0
 49
-12.6999999999999993
 74
0
  0
LTYPE
  5
3A
100
AcDbSymbolTableRecord
100
AcDbLinetypeTableRecord
  2
DIVIDE
 70
0
  3
Divide ____ . . ____ . . ____ . . ____ . . ____
 72
65
 73
6
 40
31.75
 49
12.6999999999999993
 74
0
 49
-6.3499999999999996
 74
0
 49
0.0
 74
0
 49
-6.3499999999999996
 74
0
 49
0.0
 74
0
 49
-6.3499999999999996
 74
0
  0
LTYPE
  5
3B
100
AcDbSymbolTableRecord
100
AcDbLinetypeTableRecord
  2
DIVIDE2
 70
0
  3
Divide (.5x) __..__..__..__..__..__..__..__.._
 72
65
 73
6
 40
15.875
 49
6.3499999999999996
 74
0
 49
-3.1749999999999998
 74
0
 49
0.0
 74
0
 49
-3.1749999999999998
 74
0
 49
0.0
 74
0
 49
-3.1749999999999998
 74
0
  0
LTYPE
  5
3C
100
AcDbSymbolTableRecord
100
AcDbLinetypeTableRecord
  2
DIVIDEX2
 70
0
  3
Divide (2x) ________  .  .  ________  .  .  _
 72
65
 73
6
 40
63.5
 49
25.3999999999999986
 74
0
 49
-12.6999999999999993
 74
0
 49
0.0
 74
0
 49
-12.6999999999999993
 74
0
 49
0.0
 74
0
 49
-12.6999999999999993
 74
0
  0
LTYPE
  5
3D
100
AcDbSymbolTableRecord
100
AcDbLinetypeTableRecord
  2
CENTER
 70
0
  3
Center ____ _ ____ _ ____ _ ____ _ ____ _ ____
 72
65
 73
4
 40
50.7999999999999972
 49
31.75
 74
0
 49
-6.3499999999999996
 74
0
 49
6.3499999999999996
 74
0
 49
-6.3499999999999996
 74
0
  0
LTYPE
  5
3E
100
AcDbSymbolTableRecord
100
AcDbLinetypeTableRecord
  2
CENTER2
 70
0
  3
Center (.5x) ___ _ ___ _ ___ _ ___ _ ___ _ ___
 72
65
 73
4
 40
28.5749999999999993
 49
19.0500000000000007
 74
0
 49
-3.1749999999999998
 74
0
 49
3.1749999999999998
 74
0
 49
-3.1749999999999998
 74
0
  0
LTYPE
  5
3F
100
AcDbSymbolTableRecord
100
AcDbLinetypeTableRecord
  2
CENTERX2
 70
0
  3
Center (2x) ________  __  ________  __  _____
 72
65
 73
4
 40
101.5999999999999943
 49
63.5
 74
0
 49
-12.6999999999999993
 74
0
 49
12.6999999999999993
 74
0
 49
-12.6999999999999993
 74
0
  0
LTYPE
  5
40
100
AcDbSymbolTableRecord
100
AcDbLinetypeTableRecord
  2
BORDER
 70
0
  3
Border __ __ . __ __ . __ __ . __ __ . __ __ .
 72
65
 73
6
 40
44.4500000000000028
 49
12.6999999999999993
 74
0
 49
-6.3499999999999996
 74
0
 49
12.6999999999999993
 74
0
 49
-6.3499999999999996
 74
0
 49
0.0
 74
0
 49
-6.3499999999999996
 74
0
  0
LTYPE
  5
41
100
AcDbSymbolTableRecord
100
AcDbLinetypeTableRecord
  2
BORDER2
 70
0
  3
Border (.5x) __.__.__.__.__.__.__.__.__.__.__.
 72
65
 73
6
 40
22.2250000000000014
 49
6.3499999999999996
 74
0
 49
-3.1749999999999998
 74
0
 49
6.3499999999999996
 74
0
 49
-3.1749999999999998
 74
0
 49
0.0
 74
0
 49
-3.1749999999999998
 74
0
  0
LTYPE
  5
42
100
AcDbSymbolTableRecord
100
AcDbLinetypeTableRecord
  2
BORDERX2
 70
0
  3
Border (2x) ____  ____  .  ____  ____  .  ___
 72
65
 73
6
 40
88.9000000000000057
 49
25.3999999999999986
 74
0
 49
-12.6999999999999993
 74
0
 49
25.3999999999999986
 74
0
 49
-12.6999999999999993
 74
0
 49
0.0
 74
0
 49
-12.6999999999999993
 74
0
  0
ENDTAB
  0
TABLE
  2
LAYER
  5
2
100
AcDbSymbolTable
 70
3
  0
LAYER
  5
10
100
AcDbSymbolTableRecord
100
AcDbLayerTableRecord
  2
0
 70
0
 62
7
  6
CONTINUOUS
390
F
  0
LAYER
  5
43
100
AcDbSymbolTableRecord
100
AcDbLayerTableRecord
  2
CADDY_1
 70
0
 62
7
  6
CONTINUOUS
390
F
  0
LAYER
  5
44
100
AcDbSymbolTableRecord
100
AcDbLayerTableRecord
  2
CADDY_2
 70
0
 62
7
  6
CONTINUOUS
390
F
  0
ENDTAB
  0
TABLE
  2
STYLE
  5
3
100
AcDbSymbolTable
 70
1
  0
STYLE
  5
11
100
AcDbSymbolTableRecord
100
AcDbTextStyleTableRecord
  2
Standard
 70
0
 40
0.0
 41
0.75
 50
0.0
 71
0
 42
2.5
  3
txt
  4

  0
ENDTAB
  0
TABLE
  2
VIEW
  5
6
100
AcDbSymbolTable
 70
0
  0
ENDTAB
  0
TABLE
  2
UCS
  5
7
100
AcDbSymbolTable
 70
0
  0
ENDTAB
  0
TABLE
  2
APPID
  5
9
100
AcDbSymbolTable
 70
1
  0
APPID
  5
12
100
AcDbSymbolTableRecord
100
AcDbRegAppTableRecord
  2
ACAD
 70
0
  0
ENDTAB
  0
TABLE
  2
DIMSTYLE
  5
A
100
AcDbSymbolTable
 70
1
100
AcDbDimStyleTable
 71
0
  0
DIMSTYLE
105
27
100
AcDbSymbolTableRecord
100
AcDbDimStyleTableRecord
  2
Standard
 41
2.5
 42
0.625
 43
3.75
 44
1.25
 70
0
 73
0
 74
0
 77
1
 78
8
140
2.5
141
2.5
143
0.03937007874016
147
0.625
171
3
172
1
271
2
272
2
274
3
278
44
283
0
284
8
340
11
  0
ENDTAB
  0
TABLE
  2
BLOCK_RECORD
  5
1
100
AcDbSymbolTable
 70
1
  0
BLOCK_RECORD
  5
1F
100
AcDbSymbolTableRecord
100
AcDbBlockTableRecord
  2
*Model_Space
340
22
  0
BLOCK_RECORD
  5
1B
100
AcDbSymbolTableRecord
100
AcDbBlockTableRecord
  2
*Paper_Space
340
1E
  0
BLOCK_RECORD
  5
23
100
AcDbSymbolTableRecord
100
AcDbBlockTableRecord
  2
*Paper_Space0
340
26
  0
BLOCK_RECORD
  5
45
100
AcDbSymbolTableRecord
100
AcDbBlockTableRecord
  2
BLK1
340
0
  0
BLOCK_RECORD
  5
46
100
AcDbSymbolTableRecord
100
AcDbBlockTableRecord
  2
BLK2
340
0
  0
BLOCK_RECORD
  5
47
100
AcDbSymbolTableRecord
100
AcDbBlockTableRecord
  2
BLK3
340
0
  0
BLOCK_RECORD
  5
48
100
AcDbSymbolTableRecord
100
AcDbBlockTableRecord
  2
BLK4
340
0
  0
BLOCK_RECORD
  5
49
100
AcDbSymbolTableRecord
100
AcDbBlockTableRecord
  2
BLK5
340
0
  0
BLOCK_RECORD
  5
4A
100
AcDbSymbolTableRecord
100
AcDbBlockTableRecord
  2
BLK6
340
0
  0
BLOCK_RECORD
  5
4B
100
AcDbSymbolTableRecord
100
AcDbBlockTableRecord
  2
BLK7
340
0
  0
BLOCK_RECORD
  5
4C
100
AcDbSymbolTableRecord
100
AcDbBlockTableRecord
  2
BLK8
340
0
  0
BLOCK_RECORD
  5
4D
100
AcDbSymbolTableRecord
100
AcDbBlockTableRecord
  2
BLK9
340
0
  0
BLOCK_RECORD
  5
4E
100
AcDbSymbolTableRecord
100
AcDbBlockTableRecord
  2
BLK10
340
0
  0
BLOCK_RECORD
  5
4F
100
AcDbSymbolTableRecord
100
AcDbBlockTableRecord
  2
BLK11
340
0
  0
BLOCK_RECORD
  5
50
100
AcDbSymbolTableRecord
100
AcDbBlockTableRecord
  2
BLK12
340
0
  0
BLOCK_RECORD
  5
51
100
AcDbSymbolTableRecord
100
AcDbBlockTableRecord
  2
BLK13
340
0
  0
BLOCK_RECORD
  5
52
100
AcDbSymbolTableRecord
100
AcDbBlockTableRecord
  2
BLK14
340
0
  0
ENDTAB
  0
ENDSEC
  0
SECTION
  2
BLOCKS
  0
BLOCK
  5
20
100
AcDbEntity
  8
0
100
AcDbBlockBegin
  2
*Model_Space
 70
0
 10
0.0
 20
0.0
 30
0.0
  3
*Model_Space
  1

  0
ENDBLK
  5
21
100
AcDbEntity
  8
0
100
AcDbBlockEnd
  0
BLOCK
  5
1C
100
AcDbEntity
 67
1
  8
0
100
AcDbBlockBegin
  2
*Paper_Space
 70
0
 10
0.0
 20
0.0
 30
0.0
  3
*Paper_Space
  1

  0
ENDBLK
  5
1D
100
AcDbEntity
 67
1
  8
0
100
AcDbBlockEnd
  0
BLOCK
  5
24
100
AcDbEntity
  8
0
100
AcDbBlockBegin
  2
*Paper_Space0
 70
0
 10
0.0
 20
0.0
 30
0.0
  3
*Paper_Space0
  1

  0
ENDBLK
  5
25
100
AcDbEntity
  8
0
100
AcDbBlockEnd
  0
BLOCK
  5
53
100
AcDbEntity
  8
0
100
AcDbBlockBegin
  2
BLK1
 70
0
 10
0.0
 20
0.0
 30
0.0
  3
BLK1
  1

  0
ENDBLK
  5
54
100
AcDbEntity
  8
0
100
AcDbBlockEnd
  0
BLOCK
  5
55
100
AcDbEntity
  8
0
100
AcDbBlockBegin
  2
BLK2
 70
0
 10
0.0
 20
0.0
 30
0.0
  3
BLK2
  1

  0
MTEXT
  5
56
100
AcDbEntity
100
AcDbMText
  8
CADDY_1
 62
256
370
-1
  6
ByLayer
 10
2.1770606189966202
 20
271.5115815103054047
 30
0.0
 40
2.6548541337251659
 41
100.0
 71
7
 72
2
  1
A
  7
CADDY_VECTORFONT1N
 50
0.0
 73
0
 44
1.0
  0
LINE
  5
57
100
AcDbEntity
100
AcDbLine
  8
CADDY_1
 62
256
370
-1
  6
CONTINUOUS
 10
414.749969482421875
 20
21.0702819824218786
 30
0.0
 11
414.749969482421875
 21
289.716278076171875
 31
0.0
  0
LINE
  5
58
100
AcDbEntity
100
AcDbLine
  8
CADDY_1
 62
256
370
-1
  6
CONTINUOUS
 10
5.250640869140625
 20
21.0702819824218786
 30
0.0
 11
5.250640869140625
 21
289.716278076171875
 31
0.0
  0
MTEXT
  5
59
100
AcDbEntity
100
AcDbMText
  8
CADDY_1
 62
256
370
-1
  6
ByLayer
 10
417.1141406074165729
 20
25.6916886270046199
 30
0.0
 40
2.6548541337251659
 41
100.0
 71
7
 72
2
  1
F
  7
CADDY_VECTORFONT1N
 50
0.0
 73
0
 44
1.0
  0
MTEXT
  5
5A
100
AcDbEntity
100
AcDbMText
  8
CADDY_1
 62
256
370
-1
  6
ByLayer
 10
417.1141406074165729
 20
74.8556672036647797
 30
0.0
 40
2.6548541337251659
 41
100.0
 71
7
 72
2
  1
E
  7
CADDY_VECTORFONT1N
 50
0.0
 73
0
 44
1.0
  0
MTEXT
  5
5B
100
AcDbEntity
100
AcDbMText
  8
CADDY_1
 62
256
370
-1
  6
ByLayer
 10
417.1141406074165729
 20
173.1836396157742115
 30
0.0
 40
2.6548541337251659
 41
100.0
 71
7
 72
2
  1
C
  7
CADDY_VECTORFONT1N
 50
0.0
 73
0
 44
1.0
  0
MTEXT
  5
5C
100
AcDbEntity
100
AcDbMText
  8
CADDY_1
 62
256
370
-1
  6
ByLayer
 10
417.0202725492417812
 20
222.3475495278835012
 30
0.0
 40
2.6548541337251659
 41
100.0
 71
7
 72
2
  1
B
  7
CADDY_VECTORFONT1N
 50
0.0
 73
0
 44
1.0
  0
MTEXT
  5
5D
100
AcDbEntity
100
AcDbMText
  8
CADDY_1
 62
256
370
-1
  6
ByLayer
 10
25.6524931788444484
 20
291.5283051431179047
 30
0.0
 40
2.6548541337251659
 41
100.0
 71
7
 72
2
  1
1
  7
CADDY_VECTORFONT1N
 50
0.0
 73
0
 44
1.0
  0
LINE
  5
5E
100
AcDbEntity
100
AcDbLine
  8
CADDY_1
 62
256
370
-1
  6
CONTINUOUS
 10
414.749969482421875
 20
245.81982421875
 30
0.0
 11
419.999969482421875
 21
245.81982421875
 31
0.0
  0
LINE
  5
5F
100
AcDbEntity
100
AcDbLine
  8
CADDY_1
 62
256
370
-1
  6
CONTINUOUS
 10
414.749969482421875
 20
196.6559143066405966
 30
0.0
 11
419.999969482421875
 21
196.6559143066405966
 31
0.0
  0
LINE
  5
60
100
AcDbEntity
100
AcDbLine
  8
CADDY_1
 62
256
370
-1
  6
CONTINUOUS
 10
414.749969482421875
 20
147.4918823242188068
 30
0.0
 11
419.999969482421875
 21
147.4918823242188068
 31
0.0
  0
LINE
  5
61
100
AcDbEntity
100
AcDbLine
  8
CADDY_1
 62
256
370
-1
  6
CONTINUOUS
 10
414.749969482421875
 20
98.3279571533203125
 30
0.0
 11
419.999969482421875
 21
98.3279571533203125
 31
0.0
  0
LINE
  5
62
100
AcDbEntity
100
AcDbLine
  8
CADDY_1
 62
256
370
-1
  6
CONTINUOUS
 10
414.749969482421875
 20
49.1639785766601634
 30
0.0
 11
419.999969482421875
 21
49.1639785766601634
 31
0.0
  0
LINE
  5
63
100
AcDbEntity
100
AcDbLine
  8
CADDY_1
 62
256
370
-1
  6
CONTINUOUS
 10
0.000640869140625
 20
49.1639785766601634
 30
0.0
 11
5.250640869140625
 21
49.1639785766601634
 31
0.0
  0
LINE
  5
64
100
AcDbEntity
100
AcDbLine
  8
CADDY_1
 62
256
370
-1
  6
CONTINUOUS
 10
0.000640869140625
 20
98.3279571533203125
 30
0.0
 11
5.250640869140625
 21
98.3279571533203125
 31
0.0
  0
LINE
  5
65
100
AcDbEntity
100
AcDbLine
  8
CADDY_1
 62
256
370
-1
  6
CONTINUOUS
 10
0.000640869140625
 20
147.4918823242188068
 30
0.0
 11
5.250640869140625
 21
147.4918823242188068
 31
0.0
  0
LINE
  5
66
100
AcDbEntity
100
AcDbLine
  8
CADDY_1
 62
256
370
-1
  6
CONTINUOUS
 10
0.000640869140625
 20
196.6559143066405966
 30
0.0
 11
5.250640869140625
 21
196.6559143066405966
 31
0.0
  0
LINE
  5
67
100
AcDbEntity
100
AcDbLine
  8
CADDY_1
 62
256
370
-1
  6
CONTINUOUS
 10
0.000640869140625
 20
245.81982421875
 30
0.0
 11
5.250640869140625
 21
245.81982421875
 31
0.0
  0
LINE
  5
68
100
AcDbEntity
100
AcDbLine
  8
CADDY_1
 62
256
370
-1
  6
CONTINUOUS
 10
52.5005645751953125
 20
289.716278076171875
 30
0.0
 11
52.5005645751953125
 21
294.9837646484375
 31
0.0
  0
LINE
  5
69
100
AcDbEntity
100
AcDbLine
  8
CADDY_1
 62
256
370
-1
  6
CONTINUOUS
 10
105.0004806518554972
 20
289.716278076171875
 30
0.0
 11
105.0004806518554972
 21
294.9837646484375
 31
0.0
  0
LINE
  5
6A
100
AcDbEntity
100
AcDbLine
  8
CADDY_1
 62
256
370
-1
  6
CONTINUOUS
 10
157.5003967285155966
 20
289.716278076171875
 30
0.0
 11
157.5003967285155966
 21
294.9837646484375
 31
0.0
  0
LINE
  5
6B
100
AcDbEntity
100
AcDbLine
  8
CADDY_1
 62
256
370
-1
  6
CONTINUOUS
 10
210.0003204345703125
 20
289.716278076171875
 30
0.0
 11
210.0003204345703125
 21
294.9837646484375
 31
0.0
  0
LINE
  5
6C
100
AcDbEntity
100
AcDbLine
  8
CADDY_1
 62
256
370
-1
  6
CONTINUOUS
 10
262.500244140625
 20
289.716278076171875
 30
0.0
 11
262.500244140625
 21
294.9837646484375
 31
0.0
  0
LINE
  5
6D
100
AcDbEntity
100
AcDbLine
  8
CADDY_1
 62
256
370
-1
  6
CONTINUOUS
 10
315.000152587890625
 20
289.716278076171875
 30
0.0
 11
315.000152587890625
 21
294.9837646484375
 31
0.0
  0
LINE
  5
6E
100
AcDbEntity
100
AcDbLine
  8
CADDY_1
 62
256
370
-1
  6
CONTINUOUS
 10
367.5000610351561932
 20
289.716278076171875
 30
0.0
 11
367.5000610351561932
 21
294.9837646484375
 31
0.0
  0
MTEXT
  5
6F
100
AcDbEntity
100
AcDbMText
  8
CADDY_1
 62
256
370
-1
  6
ByLayer
 10
77.8708279691636562
 20
291.5283051431179047
 30
0.0
 40
2.6548541337251659
 41
100.0
 71
7
 72
2
  1
2
  7
CADDY_VECTORFONT1N
 50
0.0
 73
0
 44
1.0
  0
MTEXT
  5
70
100
AcDbEntity
100
AcDbMText
  8
CADDY_1
 62
256
370
-1
  6
ByLayer
 10
130.4646044746041014
 20
291.5283051431179047
 30
0.0
 40
2.6548541337251659
 41
100.0
 71
7
 72
2
  1
3
  7
CADDY_VECTORFONT1N
 50
0.0
 73
0
 44
1.0
  0
MTEXT
  5
71
100
AcDbEntity
100
AcDbMText
  8
CADDY_1
 62
256
370
-1
  6
ByLayer
 10
182.7767768055200861
 20
291.5283051431179047
 30
0.0
 40
2.6548541337251659
 41
100.0
 71
7
 72
2
  1
4
  7
CADDY_VECTORFONT1N
 50
0.0
 73
0
 44
1.0
  0
MTEXT
  5
72
100
AcDbEntity
100
AcDbMText
  8
CADDY_1
 62
256
370
-1
  6
ByLayer
 10
235.4644518867135048
 20
291.5283051431179047
 30
0.0
 40
2.6548541337251659
 41
100.0
 71
7
 72
2
  1
5
  7
CADDY_VECTORFONT1N
 50
0.0
 73
0
 44
1.0
  0
MTEXT
  5
73
100
AcDbEntity
100
AcDbMText
  8
CADDY_1
 62
256
370
-1
  6
ByLayer
 10
287.8704922758042812
 20
291.5283051431179047
 30
0.0
 40
2.6548541337251659
 41
100.0
 71
7
 72
2
  1
6
  7
CADDY_VECTORFONT1N
 50
0.0
 73
0
 44
1.0
  0
MTEXT
  5
74
100
AcDbEntity
100
AcDbMText
  8
CADDY_1
 62
256
370
-1
  6
ByLayer
 10
340.3704007230699062
 20
291.5283051431179047
 30
0.0
 40
2.6548541337251659
 41
100.0
 71
7
 72
2
  1
7
  7
CADDY_VECTORFONT1N
 50
0.0
 73
0
 44
1.0
  0
MTEXT
  5
75
100
AcDbEntity
100
AcDbMText
  8
CADDY_1
 62
256
370
-1
  6
ByLayer
 10
392.8703396879137131
 20
291.5283051431179047
 30
0.0
 40
2.6548541337251659
 41
100.0
 71
7
 72
2
  1
8
  7
CADDY_VECTORFONT1N
 50
0.0
 73
0
 44
1.0
  0
MTEXT
  5
76
100
AcDbEntity
100
AcDbMText
  8
CADDY_1
 62
256
370
-1
  6
ByLayer
 10
2.2709286771714692
 20
222.3475495278835012
 30
0.0
 40
2.6548541337251659
 41
100.0
 71
7
 72
2
  1
B
  7
CADDY_VECTORFONT1N
 50
0.0
 73
0
 44
1.0
  0
MTEXT
  5
77
100
AcDbEntity
100
AcDbMText
  8
CADDY_1
 62
256
370
-1
  6
ByLayer
 10
2.3647967353463168
 20
173.1836396157742115
 30
0.0
 40
2.6548541337251659
 41
100.0
 71
7
 72
2
  1
C
  7
CADDY_VECTORFONT1N
 50
0.0
 73
0
 44
1.0
  0
MTEXT
  5
78
100
AcDbEntity
100
AcDbMText
  8
CADDY_1
 62
256
370
-1
  6
ByLayer
 10
2.2709286771714692
 20
124.0196228921412995
 30
0.0
 40
2.6548541337251659
 41
100.0
 71
7
 72
2
  1
D
  7
CADDY_VECTORFONT1N
 50
0.0
 73
0
 44
1.0
  0
MTEXT
  5
79
100
AcDbEntity
100
AcDbMText
  8
CADDY_1
 62
256
370
-1
  6
ByLayer
 10
2.3647967353463168
 20
74.8556672036647797
 30
0.0
 40
2.6548541337251659
 41
100.0
 71
7
 72
2
  1
E
  7
CADDY_VECTORFONT1N
 50
0.0
 73
0
 44
1.0
  0
MTEXT
  5
7A
100
AcDbEntity
100
AcDbMText
  8
CADDY_1
 62
256
370
-1
  6
ByLayer
 10
2.3647967353463168
 20
25.6916886270046199
 30
0.0
 40
2.6548541337251659
 41
100.0
 71
7
 72
2
  1
F
  7
CADDY_VECTORFONT1N
 50
0.0
 73
0
 44
1.0
  0
MTEXT
  5
7B
100
AcDbEntity
100
AcDbMText
  8
CADDY_1
 62
256
370
-1
  6
ByLayer
 10
417.0202725492417812
 20
124.0196228921412995
 30
0.0
 40
2.6548541337251659
 41
100.0
 71
7
 72
2
  1
D
  7
CADDY_VECTORFONT1N
 50
0.0
 73
0
 44
1.0
  0
MTEXT
  5
7C
100
AcDbEntity
100
AcDbMText
  8
CADDY_1
 62
256
370
-1
  6
ByLayer
 10
416.9264044910668758
 20
271.5115815103054047
 30
0.0
 40
2.6548541337251659
 41
100.0
 71
7
 72
2
  1
A
  7
CADDY_VECTORFONT1N
 50
0.0
 73
0
 44
1.0
  0
LINE
  5
7D
100
AcDbEntity
100
AcDbLine
  8
CADDY_1
 62
256
370
-1
  6
CONTINUOUS
 10
5.250640869140625
 20
289.716278076171875
 30
0.0
 11
414.749969482421875
 21
289.716278076171875
 31
0.0
  0
LINE
  5
7E
100
AcDbEntity
100
AcDbLine
  8
CADDY_1
 62
256
370
-1
  6
CONTINUOUS
 10
5.250640869140625
 20
10.5351409912109393
 30
0.0
 11
122.8504486083983949
 21
10.5351409912109393
 31
0.0
  0
LINE
  5
7F
100
AcDbEntity
100
AcDbLine
  8
CADDY_1
 62
256
370
-1
  6
CONTINUOUS
 10
5.250640869140625
 20
15.8027038574218803
 30
0.0
 11
122.8504486083983949
 21
15.8027038574218803
 31
0.0
  0
LINE
  5
80
100
AcDbEntity
100
AcDbLine
  8
CADDY_1
 62
256
370
-1
  6
CONTINUOUS
 10
225.7502899169921875
 20
0.0
 30
0.0
 11
225.7502899169921875
 21
21.0702819824218786
 31
0.0
  0
LINE
  5
81
100
AcDbEntity
100
AcDbLine
  8
CADDY_1
 62
256
370
-1
  6
CONTINUOUS
 10
294.0001831054688068
 20
0.0
 30
0.0
 11
294.0001831054688068
 21
21.0702819824218786
 31
0.0
  0
LINE
  5
82
100
AcDbEntity
100
AcDbLine
  8
CADDY_1
 62
256
370
-1
  6
CONTINUOUS
 10
414.749969482421875
 20
21.0702819824218786
 30
0.0
 11
5.250640869140625
 21
21.0702819824218786
 31
0.0
  0
LINE
  5
83
100
AcDbEntity
100
AcDbLine
  8
CADDY_1
 62
256
370
-1
  6
CONTINUOUS
 10
5.250640869140625
 20
0.0
 30
0.0
 11
0.000640869140625
 21
0.0
 31
0.0
  0
LINE
  5
84
100
AcDbEntity
100
AcDbLine
  8
CADDY_1
 62
256
370
-1
  6
CONTINUOUS
 10
294.0001831054688068
 20
10.5351409912109393
 30
0.0
 11
414.749969482421875
 21
10.5351409912109393
 31
0.0
  0
LINE
  5
85
100
AcDbEntity
100
AcDbLine
  8
CADDY_1
 62
256
370
-1
  6
CONTINUOUS
 10
0.000640869140625
 20
290.769775390625
 30
0.0
 11
4.2006378173828116
 21
294.9837646484375
 31
0.0
  0
LINE
  5
86
100
AcDbEntity
100
AcDbLine
  8
CADDY_1
 62
256
370
-1
  6
CONTINUOUS
 10
416.850006103515625
 20
294.9837646484375
 30
0.0
 11
419.999969482421875
 21
291.8232421875
 31
0.0
  0
LINE
  5
87
100
AcDbEntity
100
AcDbLine
  8
CADDY_1
 62
256
370
-1
  6
CONTINUOUS
 10
416.850006103515625
 20
0.0
 30
0.0
 11
419.999969482421875
 21
3.1605377197265621
 31
0.0
  0
LINE
  5
88
100
AcDbEntity
100
AcDbLine
  8
CADDY_1
 62
256
370
-1
  6
CONTINUOUS
 10
0.000640869140625
 20
3.1605377197265621
 30
0.0
 11
3.150634765625
 21
0.0
 31
0.0
  0
MTEXT
  5
89
100
AcDbEntity
100
AcDbMText
  8
CADDY_1
 62
256
370
-1
  6
ByLayer
 10
6.9011316299438477
 20
1.6856207996606829
 30
0.0
 40
2.2123787924647331
 41
100.0
 71
7
 72
2
  1
Zustand
  7
CADDY_VECTORFONT1P
 50
0.0
 73
0
 44
1.0
  0
MTEXT
  5
8A
100
AcDbEntity
100
AcDbMText
  8
CADDY_1
 62
256
370
-1
  6
ByLayer
 10
25.2761154174804688
 20
1.6856207996606829
 30
0.0
 40
2.2123787924647331
 41
100.0
 71
7
 72
2
  1
\U+00c4nderung
  7
CADDY_VECTORFONT1P
 50
0.0
 73
0
 44
1.0
  0
MTEXT
  5
8B
100
AcDbEntity
100
AcDbMText
  8
CADDY_1
 62
256
370
-1
  6
ByLayer
 10
45.7510757446289134
 20
1.6856207996606829
 30
0.0
 40
2.2123787924647331
 41
100.0
 71
7
 72
2
  1
Datum
  7
CADDY_VECTORFONT1P
 50
0.0
 73
0
 44
1.0
  0
MTEXT
  5
8C
100
AcDbEntity
100
AcDbMText
  8
CADDY_1
 62
256
370
-1
  6
ByLayer
 10
72.0010604858398438
 20
1.6856207996606829
 30
0.0
 40
2.2123787924647331
 41
100.0
 71
7
 72
2
  1
Name
  7
CADDY_VECTORFONT1P
 50
0.0
 73
0
 44
1.0
  0
MTEXT
  5
8D
100
AcDbEntity
100
AcDbMText
  8
CADDY_1
 62
256
370
-1
  6
ByLayer
 10
83.5510330200195312
 20
1.6856207996606829
 30
0.0
 40
2.2123787924647331
 41
100.0
 71
7
 72
2
  1
Norm
  7
CADDY_VECTORFONT1P
 50
0.0
 73
0
 44
1.0
  0
MTEXT
  5
8E
100
AcDbEntity
100
AcDbMText
  8
CADDY_1
 62
256
370
-1
  6
ByLayer
 10
83.5510330200195312
 20
17.4883246570825612
 30
0.0
 40
2.2123787924647331
 41
100.0
 71
7
 72
2
  1
Datum
  7
CADDY_VECTORFONT1P
 50
0.0
 73
0
 44
1.0
  0
MTEXT
  5
8F
100
AcDbEntity
100
AcDbMText
  8
CADDY_1
 62
256
370
-1
  6
ByLayer
 10
83.5510330200195312
 20
12.2207617908716202
 30
0.0
 40
2.2123787924647331
 41
100.0
 71
7
 72
2
  1
Bearb.
  7
CADDY_VECTORFONT1P
 50
0.0
 73
0
 44
1.0
  0
MTEXT
  5
90
100
AcDbEntity
100
AcDbMText
  8
CADDY_1
 62
256
370
-1
  6
ByLayer
 10
83.5510330200195312
 20
6.9531836658716202
 30
0.0
 40
2.2123787924647331
 41
100.0
 71
7
 72
2
  1
Gepr.
  7
CADDY_VECTORFONT1P
 50
0.0
 73
0
 44
1.0
  0
LINE
  5
91
100
AcDbEntity
100
AcDbLine
  8
CADDY_1
 62
256
370
-1
  6
CONTINUOUS
 10
44.1005859375
 20
21.0702819824218786
 30
0.0
 11
44.1005859375
 21
0.0
 31
0.0
  0
LINE
  5
92
100
AcDbEntity
100
AcDbLine
  8
CADDY_1
 62
256
370
-1
  6
CONTINUOUS
 10
70.3505401611328125
 20
21.0702819824218786
 30
0.0
 11
70.3505401611328125
 21
0.0
 31
0.0
  0
LINE
  5
93
100
AcDbEntity
100
AcDbLine
  8
CADDY_1
 62
256
370
-1
  6
CONTINUOUS
 10
81.9005126953125
 20
21.0702819824218786
 30
0.0
 11
81.9005126953125
 21
0.0
 31
0.0
  0
LINE
  5
94
100
AcDbEntity
100
AcDbLine
  8
CADDY_1
 62
256
370
-1
  6
CONTINUOUS
 10
5.250640869140625
 20
5.2675628662109384
 30
0.0
 11
225.7502899169921875
 21
5.2675628662109384
 31
0.0
  0
LINE
  5
95
100
AcDbEntity
100
AcDbLine
  8
CADDY_1
 62
256
370
-1
  6
CONTINUOUS
 10
96.6004867553710938
 20
21.0702819824218786
 30
0.0
 11
96.6004867553710938
 21
0.0
 31
0.0
  0
LINE
  5
96
100
AcDbEntity
100
AcDbLine
  8
CADDY_1
 62
256
370
-1
  6
CONTINUOUS
 10
196.3503265380859091
 20
21.0702819824218786
 30
0.0
 11
196.3503265380859091
 21
0.0
 31
0.0
  0
LINE
  5
97
100
AcDbEntity
100
AcDbLine
  8
CADDY_1
 62
256
370
-1
  6
CONTINUOUS
 10
157.5003967285155966
 20
5.2675628662109384
 30
0.0
 11
157.5003967285155966
 21
0.0
 31
0.0
  0
MTEXT
  5
98
100
AcDbEntity
100
AcDbMText
  8
CADDY_1
 62
256
370
-1
  6
ByLayer
 10
124.5009689331054972
 20
1.6856207996606829
 30
0.0
 40
2.2123787924647331
 41
100.0
 71
7
 72
2
  1
Urspr.
  7
CADDY_VECTORFONT1P
 50
0.0
 73
0
 44
1.0
  0
MTEXT
  5
99
100
AcDbEntity
100
AcDbMText
  8
CADDY_1
 62
256
370
-1
  6
ByLayer
 10
159.1509094238280966
 20
1.6856207996606829
 30
0.0
 40
2.2123787924647331
 41
100.0
 71
7
 72
2
  1
Ers.f.
  7
CADDY_VECTORFONT1P
 50
0.0
 73
0
 44
1.0
  0
MTEXT
  5
9A
100
AcDbEntity
100
AcDbMText
  8
CADDY_1
 62
256
370
-1
  6
ByLayer
 10
198.0008544921875
 20
1.6856207996606829
 30
0.0
 40
2.2123787924647331
 41
100.0
 71
7
 72
2
  1
Ers.d.
  7
CADDY_VECTORFONT1P
 50
0.0
 73
0
 44
1.0
  0
MTEXT
  5
9B
100
AcDbEntity
100
AcDbMText
  8
CADDY_1
 62
256
370
-1
  6
ByLayer
 10
295.650665283203125
 20
12.2207617908716202
 30
0.0
 40
2.2123787924647331
 41
100.0
 71
7
 72
2
  1
Inv.-Nr.:
  7
CADDY_VECTORFONT1P
 50
0.0
 73
0
 44
1.0
  0
LINE
  5
9C
100
AcDbEntity
100
AcDbLine
  8
CADDY_1
 62
256
370
-1
  6
CONTINUOUS
 10
333.900115966796875
 20
10.5351409912109393
 30
0.0
 11
333.900115966796875
 21
0.0
 31
0.0
  0
MTEXT
  5
9D
100
AcDbEntity
100
AcDbMText
  8
CADDY_1
 62
256
370
-1
  6
ByLayer
 10
335.550628662109375
 20
6.9531836658716202
 30
0.0
 40
2.2123787924647331
 41
100.0
 71
7
 72
2
  1
Plan-Nr.:
  7
CADDY_VECTORFONT1P
 50
0.0
 73
0
 44
1.0
  0
MTEXT
  5
9E
100
AcDbEntity
100
AcDbMText
  8
CADDY_1
 62
256
370
-1
  6
ByLayer
 10
392.2505493164061932
 20
6.9531836658716202
 30
0.0
 40
2.2123787924647331
 41
100.0
 71
7
 72
2
  1
Bl.:
  7
CADDY_VECTORFONT1P
 50
0.0
 73
0
 44
1.0
  0
MTEXT
  5
9F
100
AcDbEntity
100
AcDbMText
  8
CADDY_1
 62
256
370
-1
  6
ByLayer
 10
392.2505493164061932
 20
1.6856207996606829
 30
0.0
 40
2.2123787924647331
 41
100.0
 71
7
 72
2
  1
von:
  7
CADDY_VECTORFONT1P
 50
0.0
 73
0
 44
1.0
  0
LINE
  5
A0
100
AcDbEntity
100
AcDbLine
  8
CADDY_1
 62
256
370
-1
  6
CONTINUOUS
 10
392.7000122070311932
 20
5.2675628662109384
 30
0.0
 11
414.749969482421875
 21
5.2675628662109384
 31
0.0
  0
MTEXT
  5
A1
100
AcDbEntity
100
AcDbMText
  8
CADDY_1
 62
256
370
-1
  6
ByLayer
 10
335.550628662109375
 20
1.6856207996606829
 30
0.0
 40
2.2123787924647331
 41
100.0
 71
7
 72
2
  1
Kunde:
  7
CADDY_VECTORFONT1P
 50
0.0
 73
0
 44
1.0
  0
LINE
  5
A2
100
AcDbEntity
100
AcDbLine
  8
CADDY_1
 62
256
370
-1
  6
CONTINUOUS
 10
370.6500854492188068
 20
21.0702819824218786
 30
0.0
 11
370.6500854492188068
 21
10.5351409912109393
 31
0.0
  0
LINE
  5
A3
100
AcDbEntity
100
AcDbLine
  8
CADDY_1
 62
256
370
-1
  6
CONTINUOUS
 10
370.6500854492188068
 20
15.8027038574218803
 30
0.0
 11
414.749969482421875
 21
15.8027038574218803
 31
0.0
  0
MTEXT
  5
A4
100
AcDbEntity
100
AcDbMText
  8
CADDY_1
 62
256
370
-1
  6
ByLayer
 10
372.300537109375
 20
17.4883246570825612
 30
0.0
 40
2.2123787924647331
 41
100.0
 71
7
 72
2
  1
Anl.:
  7
CADDY_VECTORFONT1P
 50
0.0
 73
0
 44
1.0
  0
MTEXT
  5
A5
100
AcDbEntity
100
AcDbMText
  8
CADDY_1
 62
256
370
-1
  6
ByLayer
 10
372.300537109375
 20
12.2207617908716202
 30
0.0
 40
2.2123787924647331
 41
100.0
 71
7
 72
2
  1
Ort:
  7
CADDY_VECTORFONT1P
 50
0.0
 73
0
 44
1.0
  0
LINE
  5
A6
100
AcDbEntity
100
AcDbLine
  8
CADDY_1
 62
256
370
-1
  6
CONTINUOUS
 10
196.3503265380859091
 20
21.0702819824218786
 30
0.0
 11
196.3503265380859091
 21
5.2675628662109384
 31
0.0
  0
LINE
  5
A7
100
AcDbEntity
100
AcDbLine
  8
CADDY_1
 62
256
370
-1
  6
CONTINUOUS
 10
225.7502899169921875
 20
14.7491912841796893
 30
0.0
 11
225.7502899169921875
 21
2.107025146484375
 31
0.0
  0
LINE
  5
A8
100
AcDbEntity
100
AcDbLine
  8
CADDY_1
 62
256
370
-1
  6
CONTINUOUS
 10
122.8504486083983949
 20
21.0702819824218786
 30
0.0
 11
122.8504486083983949
 21
0.0
 31
0.0
  0
LINE
  5
A9
100
AcDbEntity
100
AcDbLine
  8
CADDY_1
 62
256
370
-1
  6
CONTINUOUS
 10
390.6000366210938068
 20
10.5351409912109393
 30
0.0
 11
390.6000366210938068
 21
0.0
 31
0.0
  0
LINE
  5
AA
100
AcDbEntity
100
AcDbLine
  8
CADDY_1
 62
256
370
-1
  6
CONTINUOUS
 10
390.6000366210938068
 20
5.2675628662109384
 30
0.0
 11
393.7500610351561932
 21
5.2675628662109384
 31
0.0
  0
LINE
  5
AB
100
AcDbEntity
100
AcDbLine
  8
CADDY_1
 62
256
370
-1
  6
CONTINUOUS
 10
23.6256103515625
 20
21.0702819824218786
 30
0.0
 11
23.6256103515625
 21
0.0
 31
0.0
  0
MTEXT
  5
AC
100
AcDbEntity
100
AcDbMText
  8
CADDY_1
 62
256
370
-1
  6
ByLayer
 10
109.2004987876862003
 20
12.2207617908716202
 30
0.0
 40
2.2123787924647331
 41
100.0
 71
8
 72
2
  1
MK
  7
CADDY_VECTORFONT1P
 50
0.0
 73
0
 44
1.0
  0
MTEXT
  5
AD
100
AcDbEntity
100
AcDbMText
  8
CADDY_1
 62
256
370
-1
  6
ByLayer
 10
311.400634765625
 20
12.2207617908716202
 30
0.0
 40
2.2123787924647331
 41
100.0
 71
7
 72
2
  1

  7
CADDY_VECTORFONT1P
 50
0.0
 73
0
 44
1.0
  0
MTEXT
  5
AE
100
AcDbEntity
100
AcDbMText
  8
CADDY_1
 62
256
370
-1
  6
ByLayer
 10
351.8255615234375
 20
1.6856207996606829
 30
0.0
 40
2.2123787924647331
 41
100.0
 71
7
 72
2
  1
Freistaat\~Bayern
  7
CADDY_VECTORFONT1P
 50
0.0
 73
0
 44
1.0
  0
MTEXT
  5
AF
100
AcDbEntity
100
AcDbMText
  8
CADDY_1
 62
256
370
-1
  6
ByLayer
 10
159.6003889366984083
 20
14.0117258131504094
 30
0.0
 40
2.9498385637998581
 41
100.0
 71
8
 72
2
  1
Magic\~II\~Teleskop
  7
CADDY_VECTORFONT1P
 50
0.0
 73
0
 44
1.0
  0
MTEXT
  5
B0
100
AcDbEntity
100
AcDbMText
  8
CADDY_1
 62
256
370
-1
  6
ByLayer
 10
159.600390806794195
 20
8.7441629469394684
 30
0.0
 40
2.9498385637998581
 41
100.0
 71
8
 72
2
  1

  7
CADDY_VECTORFONT1P
 50
0.0
 73
0
 44
1.0
  0
LINE
  5
B1
100
AcDbEntity
100
AcDbLine
  8
CADDY_1
 62
256
370
-1
  6
CONTINUOUS
 10
5.250640869140625
 20
21.0702819824218786
 30
0.0
 11
5.250640869140625
 21
0.0
 31
0.0
  0
LINE
  5
B2
100
AcDbEntity
100
AcDbLine
  8
CADDY_1
 62
256
370
-1
  6
CONTINUOUS
 10
414.749969482421875
 20
0.0
 30
0.0
 11
414.749969482421875
 21
21.0702819824218786
 31
0.0
  0
LINE
  5
B3
100
AcDbEntity
100
AcDbLine
  8
CADDY_1
 62
256
370
-1
  6
CONTINUOUS
 10
0.000640869140625
 20
0.0
 30
0.0
 11
419.999969482421875
 21
0.0
 31
0.0
  0
LINE
  5
B4
100
AcDbEntity
100
AcDbLine
  8
CADDY_1
 62
256
370
-1
  6
CONTINUOUS
 10
419.999969482421875
 20
0.0
 30
0.0
 11
419.999969482421875
 21
294.9837646484375
 31
0.0
  0
LINE
  5
B5
100
AcDbEntity
100
AcDbLine
  8
CADDY_1
 62
256
370
-1
  6
CONTINUOUS
 10
419.999969482421875
 20
294.9837646484375
 30
0.0
 11
0.000640869140625
 21
294.9837646484375
 31
0.0
  0
LINE
  5
B6
100
AcDbEntity
100
AcDbLine
  8
CADDY_1
 62
256
370
-1
  6
CONTINUOUS
 10
0.000640869140625
 20
294.9837646484375
 30
0.0
 11
0.000640869140625
 21
0.0
 31
0.0
  0
MTEXT
  5
B7
100
AcDbEntity
100
AcDbMText
  8
CADDY_1
 62
256
370
-1
  6
ByLayer
 10
257.2502615135163069
 20
13.8010230213403702
 30
0.0
 40
2.2123787924647331
 41
100.0
 71
8
 72
2
  1
Einspeisung\~CPU
  7
CADDY_VECTORFONT1P
 50
0.0
 73
0
 44
1.0
  0
MTEXT
  5
B8
100
AcDbEntity
100
AcDbMText
  8
CADDY_1
 62
256
370
-1
  6
ByLayer
 10
109.2005026023834944
 20
6.9531836658716202
 30
0.0
 40
2.2123787924647331
 41
100.0
 71
8
 72
2
  1
01.12.2007
  7
CADDY_VECTORFONT1P
 50
0.0
 73
0
 44
1.0
  0
MTEXT
  5
B9
100
AcDbEntity
100
AcDbMText
  8
CADDY_1
 62
256
370
-1
  6
ByLayer
 10
401.700531005859375
 20
6.9531836658716202
 30
0.0
 40
2.2123787924647331
 41
100.0
 71
7
 72
2
  1
28
  7
CADDY_VECTORFONT1P
 50
0.0
 73
0
 44
1.0
  0
MTEXT
  5
BA
100
AcDbEntity
100
AcDbMText
  8
CADDY_1
 62
256
370
-1
  6
ByLayer
 10
401.700531005859375
 20
1.6856207996606829
 30
0.0
 40
2.2123787924647331
 41
100.0
 71
7
 72
2
  1
35
  7
CADDY_VECTORFONT1P
 50
0.0
 73
0
 44
1.0
  0
MTEXT
  5
BB
100
AcDbEntity
100
AcDbMText
  8
CADDY_1
 62
256
370
-1
  6
ByLayer
 10
257.2502313032745747
 20
5.8996710926294327
 30
0.0
 40
2.2123787924647331
 41
100.0
 71
8
 72
2
  1

  7
CADDY_VECTORFONT1P
 50
0.0
 73
0
 44
1.0
  0
MTEXT
  5
BC
100
AcDbEntity
100
AcDbMText
  8
CADDY_1
 62
256
370
-1
  6
ByLayer
 10
109.2005102317779972
 20
17.4883246570825612
 30
0.0
 40
2.2123787924647331
 41
100.0
 71
8
 72
2
  1
12.07.2006
  7
CADDY_VECTORFONT1P
 50
0.0
 73
0
 44
1.0
  0
MTEXT
  5
BD
100
AcDbEntity
100
AcDbMText
  8
CADDY_1
 62
256
370
-1
  6
ByLayer
 10
295.650665283203125
 20
6.9531836658716202
 30
0.0
 40
2.2123787924647331
 41
100.0
 71
7
 72
2
  1
Projekt:
  7
CADDY_VECTORFONT1P
 50
0.0
 73
0
 44
1.0
  0
MTEXT
  5
BE
100
AcDbEntity
100
AcDbMText
  8
CADDY_1
 62
256
370
-1
  6
ByLayer
 10
296.1756591796875
 20
1.6856207996606829
 30
0.0
 40
2.2123787924647331
 41
100.0
 71
7
 72
2
  1
9573\~Magic\~II\~Teleskop
  7
CADDY_VECTORFONT1P
 50
0.0
 73
0
 44
1.0
  0
MTEXT
  5
BF
100
AcDbEntity
100
AcDbMText
  8
CADDY_1
 62
256
370
-1
  6
ByLayer
 10
351.8255615234375
 20
6.9531836658716202
 30
0.0
 40
2.2123787924647331
 41
100.0
 71
7
 72
2
  1
9573
  7
CADDY_VECTORFONT1P
 50
0.0
 73
0
 44
1.0
  0
MTEXT
  5
C0
100
AcDbEntity
100
AcDbMText
  8
CADDY_1
 62
256
370
-1
  6
ByLayer
 10
11.2012119293212908
 20
24.4415152966976201
 30
0.0
 40
2.5811082869768138
 41
100.0
 71
7
 72
2
  1
27
  7
CADDY_VECTORFONT1P
 50
0.0
 73
0
 44
1.0
  0
MTEXT
  5
C1
100
AcDbEntity
100
AcDbMText
  8
CADDY_1
 62
256
370
-1
  6
ByLayer
 10
408.7994076535106274
 20
24.4415152966976201
 30
0.0
 40
2.5811082869768138
 41
100.0
 71
9
 72
2
  1
29
  7
CADDY_VECTORFONT1P
 50
0.0
 73
0
 44
1.0
  0
MTEXT
  5
C2
100
AcDbEntity
100
AcDbMText
  8
CADDY_1
 62
256
370
-1
  6
ByLayer
 10
405.638031005859375
 20
6.9531836658716202
 30
0.0
 40
2.2123787924647331
 41
100.0
 71
7
 72
2
  1

  7
CADDY_VECTORFONT1P
 50
0.0
 73
0
 44
1.0
  0
MTEXT
  5
C3
100
AcDbEntity
100
AcDbMText
  8
CADDY_1
 62
256
370
-1
  6
ByLayer
 10
295.650665283203125
 20
17.4883246570825612
 30
0.0
 40
2.2123787924647331
 41
100.0
 71
7
 72
2
  1

  7
CADDY_VECTORFONT1P
 50
0.0
 73
0
 44
1.0
  0
MTEXT
  5
C4
100
AcDbEntity
100
AcDbMText
  8
CADDY_1
 62
256
370
-1
  6
ByLayer
 10
385.950531005859375
 20
17.4883246570825612
 30
0.0
 40
2.2123787924647331
 41
100.0
 71
7
 72
2
  1
=
  7
CADDY_VECTORFONT1P
 50
0.0
 73
0
 44
1.0
  0
MTEXT
  5
C5
100
AcDbEntity
100
AcDbMText
  8
CADDY_1
 62
256
370
-1
  6
ByLayer
 10
385.950531005859375
 20
12.2207617908716202
 30
0.0
 40
2.2123787924647331
 41
100.0
 71
7
 72
2
  1
+
  7
CADDY_VECTORFONT1P
 50
0.0
 73
0
 44
1.0
  0
INSERT
  5
C6
100
AcDbEntity
100
AcDbBlockReference
  8
CADDY_1
 62
256
370
-1
  6
ByLayer
  2
BLK3
 10
0.0
 20
0.0
 30
0.0
  0
MTEXT
  5
C7
100
AcDbEntity
100
AcDbMText
  8
CADDY_1
 62
256
370
-1
  6
ByLayer
 10
24.4886093139648402
 20
17.4883246570825612
 30
0.0
 40
2.2123787924647331
 41
100.0
 71
7
 72
2
  1
Konstruktion:
  7
CADDY_VECTORFONT1P
 50
0.0
 73
0
 44
1.0
  0
MTEXT
  5
C8
100
AcDbEntity
100
AcDbMText
  8
CADDY_1
 62
256
370
-1
  6
ByLayer
 10
56.7005617301911116
 20
17.4883246570825612
 30
0.0
 40
2.2123787924647331
 41
100.0
 71
8
 72
2
  1
MK
  7
CADDY_VECTORFONT1P
 50
0.0
 73
0
 44
1.0
  0
ENDBLK
  5
C9
100
AcDbEntity
  8
0
100
AcDbBlockEnd
  0
BLOCK
  5
CA
100
AcDbEntity
  8
0
100
AcDbBlockBegin
  2
BLK3
 70
0
 10
0.0
 20
0.0
 30
0.0
  3
BLK3
  1

  0
INSERT
  5
CB
100
AcDbEntity
100
AcDbBlockReference
  8
CADDY_1
 62
256
370
-1
  6
ByLayer
  2
BLK4
 10
0.0
 20
0.0
 30
0.0
  0
LINE
  5
CC
100
AcDbEntity
100
AcDbLine
  8
CADDY_2
 62
8
370
-1
  6
CONTINUOUS
 10
199.1484527587890909
 20
7.9013519287109384
 30
0.0
 11
205.3646850585938068
 21
7.9013519287109384
 31
0.0
  0
LINE
  5
CD
100
AcDbEntity
100
AcDbLine
  8
CADDY_2
 62
8
370
-1
  6
CONTINUOUS
 10
199.1484527587890909
 20
8.0011749267578125
 30
0.0
 11
205.6607055664061932
 21
8.0011749267578125
 31
0.0
  0
LINE
  5
CE
100
AcDbEntity
100
AcDbLine
  8
CADDY_2
 62
8
370
-1
  6
CONTINUOUS
 10
199.0744934082030966
 20
8.10101318359375
 30
0.0
 11
205.9567108154296875
 21
8.10101318359375
 31
0.0
  0
LINE
  5
CF
100
AcDbEntity
100
AcDbLine
  8
CADDY_2
 62
8
370
-1
  6
CONTINUOUS
 10
198.7784729003905966
 20
8.200836181640625
 30
0.0
 11
198.7784729003905966
 21
8.200836181640625
 31
0.0
  0
LINE
  5
D0
100
AcDbEntity
100
AcDbLine
  8
CADDY_2
 62
8
370
-1
  6
CONTINUOUS
 10
204.6986541748046875
 20
8.200836181640625
 30
0.0
 11
206.3267364501953125
 21
8.200836181640625
 31
0.0
  0
LINE
  5
D1
100
AcDbEntity
100
AcDbLine
  8
CADDY_2
 62
8
370
-1
  6
CONTINUOUS
 10
198.7784729003905966
 20
8.3006744384765625
 30
0.0
 11
198.7784729003905966
 21
8.3006744384765625
 31
0.0
  0
LINE
  5
D2
100
AcDbEntity
100
AcDbLine
  8
CADDY_2
 62
8
370
-1
  6
CONTINUOUS
 10
204.9946746826171875
 20
8.3006744384765625
 30
0.0
 11
206.4747314453125
 21
8.3006744384765625
 31
0.0
  0
LINE
  5
D3
100
AcDbEntity
100
AcDbLine
  8
CADDY_2
 62
8
370
-1
  6
CONTINUOUS
 10
198.7784729003905966
 20
8.4004974365234375
 30
0.0
 11
198.7784729003905966
 21
8.4004974365234375
 31
0.0
  0
LINE
  5
D4
100
AcDbEntity
100
AcDbLine
  8
CADDY_2
 62
8
370
-1
  6
CONTINUOUS
 10
205.6607055664061932
 20
8.4004974365234375
 30
0.0
 11
206.6967315673828125
 21
8.4004974365234375
 31
0.0
  0
LINE
  5
D5
100
AcDbEntity
100
AcDbLine
  8
CADDY_2
 62
8
370
-1
  6
CONTINUOUS
 10
198.7784729003905966
 20
8.5003204345703125
 30
0.0
 11
198.7784729003905966
 21
8.5003204345703125
 31
0.0
  0
LINE
  5
D6
100
AcDbEntity
100
AcDbLine
  8
CADDY_2
 62
8
370
-1
  6
CONTINUOUS
 10
205.7347259521484091
 20
8.5003204345703125
 30
0.0
 11
206.7707366943359091
 21
8.5003204345703125
 31
0.0
  0
LINE
  5
D7
100
AcDbEntity
100
AcDbLine
  8
CADDY_2
 62
8
370
-1
  6
CONTINUOUS
 10
198.7784729003905966
 20
8.60015869140625
 30
0.0
 11
198.7784729003905966
 21
8.60015869140625
 31
0.0
  0
LINE
  5
D8
100
AcDbEntity
100
AcDbLine
  8
CADDY_2
 62
8
370
-1
  6
CONTINUOUS
 10
206.0307312011719034
 20
8.60015869140625
 30
0.0
 11
206.9927520751953125
 21
8.60015869140625
 31
0.0
  0
LINE
  5
D9
100
AcDbEntity
100
AcDbLine
  8
CADDY_2
 62
8
370
-1
  6
CONTINUOUS
 10
198.7784729003905966
 20
8.699981689453125
 30
0.0
 11
198.7784729003905966
 21
8.699981689453125
 31
0.0
  0
LINE
  5
DA
100
AcDbEntity
100
AcDbLine
  8
CADDY_2
 62
8
370
-1
  6
CONTINUOUS
 10
206.1047058105469034
 20
8.699981689453125
 30
0.0
 11
206.9927520751953125
 21
8.699981689453125
 31
0.0
  0
LINE
  5
DB
100
AcDbEntity
100
AcDbLine
  8
CADDY_2
 62
8
370
-1
  6
CONTINUOUS
 10
198.7784729003905966
 20
8.7998046875
 30
0.0
 11
198.7784729003905966
 21
8.7998046875
 31
0.0
  0
LINE
  5
DC
100
AcDbEntity
100
AcDbLine
  8
CADDY_2
 62
8
370
-1
  6
CONTINUOUS
 10
206.3267364501953125
 20
8.7998046875
 30
0.0
 11
207.1407775878905966
 21
8.7998046875
 31
0.0
  0
LINE
  5
DD
100
AcDbEntity
100
AcDbLine
  8
CADDY_2
 62
8
370
-1
  6
CONTINUOUS
 10
198.7784729003905966
 20
8.8996429443359375
 30
0.0
 11
198.7784729003905966
 21
8.8996429443359375
 31
0.0
  0
LINE
  5
DE
100
AcDbEntity
100
AcDbLine
  8
CADDY_2
 62
8
370
-1
  6
CONTINUOUS
 10
206.4747314453125
 20
8.8996429443359375
 30
0.0
 11
207.2887420654296875
 21
8.8996429443359375
 31
0.0
  0
LINE
  5
DF
100
AcDbEntity
100
AcDbLine
  8
CADDY_2
 62
8
370
-1
  6
CONTINUOUS
 10
198.7784729003905966
 20
8.9994659423828125
 30
0.0
 11
198.7784729003905966
 21
8.9994659423828125
 31
0.0
  0
LINE
  5
E0
100
AcDbEntity
100
AcDbLine
  8
CADDY_2
 62
8
370
-1
  6
CONTINUOUS
 10
206.5487365722655966
 20
8.9994659423828125
 30
0.0
 11
207.2887420654296875
 21
8.9994659423828125
 31
0.0
  0
LINE
  5
E1
100
AcDbEntity
100
AcDbLine
  8
CADDY_2
 62
8
370
-1
  6
CONTINUOUS
 10
209.8788604736328125
 20
8.9994659423828125
 30
0.0
 11
210.02685546875
 21
8.9994659423828125
 31
0.0
  0
LINE
  5
E2
100
AcDbEntity
100
AcDbLine
  8
CADDY_2
 62
8
370
-1
  6
CONTINUOUS
 10
214.6150054931640909
 20
8.9994659423828125
 30
0.0
 11
214.6150054931640909
 21
8.9994659423828125
 31
0.0
  0
LINE
  5
E3
100
AcDbEntity
100
AcDbLine
  8
CADDY_2
 62
8
370
-1
  6
CONTINUOUS
 10
215.8730316162109091
 20
8.9994659423828125
 30
0.0
 11
215.8730316162109091
 21
8.9994659423828125
 31
0.0
  0
LINE
  5
E4
100
AcDbEntity
100
AcDbLine
  8
CADDY_2
 62
8
370
-1
  6
CONTINUOUS
 10
198.7784729003905966
 20
9.0992889404296875
 30
0.0
 11
204.3286590576171875
 21
9.0992889404296875
 31
0.0
  0
LINE
  5
E5
100
AcDbEntity
100
AcDbLine
  8
CADDY_2
 62
8
370
-1
  6
CONTINUOUS
 10
206.6967315673828125
 20
9.0992889404296875
 30
0.0
 11
207.436767578125
 21
9.0992889404296875
 31
0.0
  0
LINE
  5
E6
100
AcDbEntity
100
AcDbLine
  8
CADDY_2
 62
8
370
-1
  6
CONTINUOUS
 10
209.3608551025390909
 20
9.0992889404296875
 30
0.0
 11
210.4708862304688068
 21
9.0992889404296875
 31
0.0
  0
LINE
  5
E7
100
AcDbEntity
100
AcDbLine
  8
CADDY_2
 62
8
370
-1
  6
CONTINUOUS
 10
211.3589019775390909
 20
9.0992889404296875
 30
0.0
 11
211.8769073486328125
 21
9.0992889404296875
 31
0.0
  0
LINE
  5
E8
100
AcDbEntity
100
AcDbLine
  8
CADDY_2
 62
8
370
-1
  6
CONTINUOUS
 10
213.1349334716796875
 20
9.0992889404296875
 30
0.0
 11
213.5789642333984091
 21
9.0992889404296875
 31
0.0
  0
LINE
  5
E9
100
AcDbEntity
100
AcDbLine
  8
CADDY_2
 62
8
370
-1
  6
CONTINUOUS
 10
214.1709594726561932
 20
9.0992889404296875
 30
0.0
 11
216.2430419921875
 21
9.0992889404296875
 31
0.0
  0
LINE
  5
EA
100
AcDbEntity
100
AcDbLine
  8
CADDY_2
 62
8
370
-1
  6
CONTINUOUS
 10
216.8350830078125
 20
9.0992889404296875
 30
0.0
 11
218.6851348876953125
 21
9.0992889404296875
 31
0.0
  0
LINE
  5
EB
100
AcDbEntity
100
AcDbLine
  8
CADDY_2
 62
8
370
-1
  6
CONTINUOUS
 10
219.4251708984375
 20
9.0992889404296875
 30
0.0
 11
219.9431915283203125
 21
9.0992889404296875
 31
0.0
  0
LINE
  5
EC
100
AcDbEntity
100
AcDbLine
  8
CADDY_2
 62
8
370
-1
  6
CONTINUOUS
 10
221.4972229003905966
 20
9.0992889404296875
 30
0.0
 11
221.9412536621094034
 21
9.0992889404296875
 31
0.0
  0
LINE
  5
ED
100
AcDbEntity
100
AcDbLine
  8
CADDY_2
 62
8
370
-1
  6
CONTINUOUS
 10
198.7784729003905966
 20
9.199127197265625
 30
0.0
 11
204.7726745605469034
 21
9.199127197265625
 31
0.0
  0
LINE
  5
EE
100
AcDbEntity
100
AcDbLine
  8
CADDY_2
 62
8
370
-1
  6
CONTINUOUS
 10
206.6967315673828125
 20
9.199127197265625
 30
0.0
 11
207.436767578125
 21
9.199127197265625
 31
0.0
  0
LINE
  5
EF
100
AcDbEntity
100
AcDbLine
  8
CADDY_2
 62
8
370
-1
  6
CONTINUOUS
 10
209.2128295898438068
 20
9.199127197265625
 30
0.0
 11
209.9528656005859091
 21
9.199127197265625
 31
0.0
  0
LINE
  5
F0
100
AcDbEntity
100
AcDbLine
  8
CADDY_2
 62
8
370
-1
  6
CONTINUOUS
 10
210.1008605957030966
 20
9.199127197265625
 30
0.0
 11
210.6188812255859091
 21
9.199127197265625
 31
0.0
  0
LINE
  5
F1
100
AcDbEntity
100
AcDbLine
  8
CADDY_2
 62
8
370
-1
  6
CONTINUOUS
 10
211.6549072265625
 20
9.199127197265625
 30
0.0
 11
211.8028869628905966
 21
9.199127197265625
 31
0.0
  0
LINE
  5
F2
100
AcDbEntity
100
AcDbLine
  8
CADDY_2
 62
8
370
-1
  6
CONTINUOUS
 10
213.0609283447265909
 20
9.199127197265625
 30
0.0
 11
213.5789642333984091
 21
9.199127197265625
 31
0.0
  0
LINE
  5
F3
100
AcDbEntity
100
AcDbLine
  8
CADDY_2
 62
8
370
-1
  6
CONTINUOUS
 10
214.1709594726561932
 20
9.199127197265625
 30
0.0
 11
216.2430419921875
 21
9.199127197265625
 31
0.0
  0
LINE
  5
F4
100
AcDbEntity
100
AcDbLine
  8
CADDY_2
 62
8
370
-1
  6
CONTINUOUS
 10
216.8350830078125
 20
9.199127197265625
 30
0.0
 11
218.0191192626953125
 21
9.199127197265625
 31
0.0
  0
LINE
  5
F5
100
AcDbEntity
100
AcDbLine
  8
CADDY_2
 62
8
370
-1
  6
CONTINUOUS
 10
218.2411346435546875
 20
9.199127197265625
 30
0.0
 11
218.8331604003905966
 21
9.199127197265625
 31
0.0
  0
LINE
  5
F6
100
AcDbEntity
100
AcDbLine
  8
CADDY_2
 62
8
370
-1
  6
CONTINUOUS
 10
219.7211761474609091
 20
9.199127197265625
 30
0.0
 11
219.9431915283203125
 21
9.199127197265625
 31
0.0
  0
LINE
  5
F7
100
AcDbEntity
100
AcDbLine
  8
CADDY_2
 62
8
370
-1
  6
CONTINUOUS
 10
221.4972229003905966
 20
9.199127197265625
 30
0.0
 11
221.9412536621094034
 21
9.199127197265625
 31
0.0
  0
LINE
  5
F8
100
AcDbEntity
100
AcDbLine
  8
CADDY_2
 62
8
370
-1
  6
CONTINUOUS
 10
204.5506591796875
 20
9.2989501953125
 30
0.0
 11
205.1426849365234091
 21
9.2989501953125
 31
0.0
  0
LINE
  5
F9
100
AcDbEntity
100
AcDbLine
  8
CADDY_2
 62
8
370
-1
  6
CONTINUOUS
 10
206.8447570800780966
 20
9.2989501953125
 30
0.0
 11
207.5107574462890909
 21
9.2989501953125
 31
0.0
  0
LINE
  5
FA
100
AcDbEntity
100
AcDbLine
  8
CADDY_2
 62
8
370
-1
  6
CONTINUOUS
 10
210.3228607177734091
 20
9.2989501953125
 30
0.0
 11
210.8408813476561932
 21
9.2989501953125
 31
0.0
  0
LINE
  5
FB
100
AcDbEntity
100
AcDbLine
  8
CADDY_2
 62
8
370
-1
  6
CONTINUOUS
 10
211.7288818359375
 20
9.2989501953125
 30
0.0
 11
211.8028869628905966
 21
9.2989501953125
 31
0.0
  0
LINE
  5
FC
100
AcDbEntity
100
AcDbLine
  8
CADDY_2
 62
8
370
-1
  6
CONTINUOUS
 10
213.4309387207030966
 20
9.2989501953125
 30
0.0
 11
213.5789642333984091
 21
9.2989501953125
 31
0.0
  0
LINE
  5
FD
100
AcDbEntity
100
AcDbLine
  8
CADDY_2
 62
8
370
-1
  6
CONTINUOUS
 10
216.1690368652344034
 20
9.2989501953125
 30
0.0
 11
216.2430419921875
 21
9.2989501953125
 31
0.0
  0
LINE
  5
FE
100
AcDbEntity
100
AcDbLine
  8
CADDY_2
 62
8
370
-1
  6
CONTINUOUS
 10
218.6111297607421875
 20
9.2989501953125
 30
0.0
 11
218.9071350097655966
 21
9.2989501953125
 31
0.0
  0
LINE
  5
FF
100
AcDbEntity
100
AcDbLine
  8
CADDY_2
 62
8
370
-1
  6
CONTINUOUS
 10
219.8691711425780966
 20
9.2989501953125
 30
0.0
 11
220.0171813964844034
 21
9.2989501953125
 31
0.0
  0
LINE
  5
100
100
AcDbEntity
100
AcDbLine
  8
CADDY_2
 62
8
370
-1
  6
CONTINUOUS
 10
221.2752380371094034
 20
9.2989501953125
 30
0.0
 11
221.2752380371094034
 21
9.2989501953125
 31
0.0
  0
LINE
  5
101
100
AcDbEntity
100
AcDbLine
  8
CADDY_2
 62
8
370
-1
  6
CONTINUOUS
 10
221.8672637939453125
 20
9.2989501953125
 30
0.0
 11
221.9412536621094034
 21
9.2989501953125
 31
0.0
  0
LINE
  5
102
100
AcDbEntity
100
AcDbLine
  8
CADDY_2
 62
8
370
-1
  6
CONTINUOUS
 10
204.8466796875
 20
9.3987884521484375
 30
0.0
 11
205.2906799316405966
 21
9.3987884521484375
 31
0.0
  0
LINE
  5
103
100
AcDbEntity
100
AcDbLine
  8
CADDY_2
 62
8
370
-1
  6
CONTINUOUS
 10
206.8447570800780966
 20
9.3987884521484375
 30
0.0
 11
207.5107574462890909
 21
9.3987884521484375
 31
0.0
  0
LINE
  5
104
100
AcDbEntity
100
AcDbLine
  8
CADDY_2
 62
8
370
-1
  6
CONTINUOUS
 10
210.4708862304688068
 20
9.3987884521484375
 30
0.0
 11
210.8408813476561932
 21
9.3987884521484375
 31
0.0
  0
LINE
  5
105
100
AcDbEntity
100
AcDbLine
  8
CADDY_2
 62
8
370
-1
  6
CONTINUOUS
 10
211.7288818359375
 20
9.3987884521484375
 30
0.0
 11
211.8028869628905966
 21
9.3987884521484375
 31
0.0
  0
LINE
  5
106
100
AcDbEntity
100
AcDbLine
  8
CADDY_2
 62
8
370
-1
  6
CONTINUOUS
 10
213.4309387207030966
 20
9.3987884521484375
 30
0.0
 11
213.5789642333984091
 21
9.3987884521484375
 31
0.0
  0
LINE
  5
107
100
AcDbEntity
100
AcDbLine
  8
CADDY_2
 62
8
370
-1
  6
CONTINUOUS
 10
216.1690368652344034
 20
9.3987884521484375
 30
0.0
 11
216.2430419921875
 21
9.3987884521484375
 31
0.0
  0
LINE
  5
108
100
AcDbEntity
100
AcDbLine
  8
CADDY_2
 62
8
370
-1
  6
CONTINUOUS
 10
218.6851348876953125
 20
9.3987884521484375
 30
0.0
 11
218.9811401367188068
 21
9.3987884521484375
 31
0.0
  0
LINE
  5
109
100
AcDbEntity
100
AcDbLine
  8
CADDY_2
 62
8
370
-1
  6
CONTINUOUS
 10
219.9431915283203125
 20
9.3987884521484375
 30
0.0
 11
220.0171813964844034
 21
9.3987884521484375
 31
0.0
  0
LINE
  5
10A
100
AcDbEntity
100
AcDbLine
  8
CADDY_2
 62
8
370
-1
  6
CONTINUOUS
 10
221.8672637939453125
 20
9.3987884521484375
 30
0.0
 11
221.8672637939453125
 21
9.3987884521484375
 31
0.0
  0
LINE
  5
10B
100
AcDbEntity
100
AcDbLine
  8
CADDY_2
 62
8
370
-1
  6
CONTINUOUS
 10
205.1426849365234091
 20
9.4986114501953125
 30
0.0
 11
205.5127105712890909
 21
9.4986114501953125
 31
0.0
  0
LINE
  5
10C
100
AcDbEntity
100
AcDbLine
  8
CADDY_2
 62
8
370
-1
  6
CONTINUOUS
 10
206.9187469482421875
 20
9.4986114501953125
 30
0.0
 11
207.5847625732421875
 21
9.4986114501953125
 31
0.0
  0
LINE
  5
10D
100
AcDbEntity
100
AcDbLine
  8
CADDY_2
 62
8
370
-1
  6
CONTINUOUS
 10
210.6188812255859091
 20
9.4986114501953125
 30
0.0
 11
210.8408813476561932
 21
9.4986114501953125
 31
0.0
  0
LINE
  5
10E
100
AcDbEntity
100
AcDbLine
  8
CADDY_2
 62
8
370
-1
  6
CONTINUOUS
 10
211.7288818359375
 20
9.4986114501953125
 30
0.0
 11
211.8028869628905966
 21
9.4986114501953125
 31
0.0
  0
LINE
  5
10F
100
AcDbEntity
100
AcDbLine
  8
CADDY_2
 62
8
370
-1
  6
CONTINUOUS
 10
213.4309387207030966
 20
9.4986114501953125
 30
0.0
 11
213.5789642333984091
 21
9.4986114501953125
 31
0.0
  0
LINE
  5
110
100
AcDbEntity
100
AcDbLine
  8
CADDY_2
 62
8
370
-1
  6
CONTINUOUS
 10
218.8331604003905966
 20
9.4986114501953125
 30
0.0
 11
219.0551605224609091
 21
9.4986114501953125
 31
0.0
  0
LINE
  5
111
100
AcDbEntity
100
AcDbLine
  8
CADDY_2
 62
8
370
-1
  6
CONTINUOUS
 10
219.9431915283203125
 20
9.4986114501953125
 30
0.0
 11
220.0911712646484091
 21
9.4986114501953125
 31
0.0
  0
LINE
  5
112
100
AcDbEntity
100
AcDbLine
  8
CADDY_2
 62
8
370
-1
  6
CONTINUOUS
 10
221.7932434082030966
 20
9.4986114501953125
 30
0.0
 11
221.7932434082030966
 21
9.4986114501953125
 31
0.0
  0
LINE
  5
113
100
AcDbEntity
100
AcDbLine
  8
CADDY_2
 62
8
370
-1
  6
CONTINUOUS
 10
205.4387054443359091
 20
9.59844970703125
 30
0.0
 11
205.6607055664061932
 21
9.59844970703125
 31
0.0
  0
LINE
  5
114
100
AcDbEntity
100
AcDbLine
  8
CADDY_2
 62
8
370
-1
  6
CONTINUOUS
 10
206.9927520751953125
 20
9.59844970703125
 30
0.0
 11
207.6587829589844034
 21
9.59844970703125
 31
0.0
  0
LINE
  5
115
100
AcDbEntity
100
AcDbLine
  8
CADDY_2
 62
8
370
-1
  6
CONTINUOUS
 10
210.7669067382811932
 20
9.59844970703125
 30
0.0
 11
210.8408813476561932
 21
9.59844970703125
 31
0.0
  0
LINE
  5
116
100
AcDbEntity
100
AcDbLine
  8
CADDY_2
 62
8
370
-1
  6
CONTINUOUS
 10
211.7288818359375
 20
9.59844970703125
 30
0.0
 11
211.8028869628905966
 21
9.59844970703125
 31
0.0
  0
LINE
  5
117
100
AcDbEntity
100
AcDbLine
  8
CADDY_2
 62
8
370
-1
  6
CONTINUOUS
 10
213.4309387207030966
 20
9.59844970703125
 30
0.0
 11
213.5789642333984091
 21
9.59844970703125
 31
0.0
  0
LINE
  5
118
100
AcDbEntity
100
AcDbLine
  8
CADDY_2
 62
8
370
-1
  6
CONTINUOUS
 10
218.9071350097655966
 20
9.59844970703125
 30
0.0
 11
219.0551605224609091
 21
9.59844970703125
 31
0.0
  0
LINE
  5
119
100
AcDbEntity
100
AcDbLine
  8
CADDY_2
 62
8
370
-1
  6
CONTINUOUS
 10
219.9431915283203125
 20
9.59844970703125
 30
0.0
 11
220.0911712646484091
 21
9.59844970703125
 31
0.0
  0
LINE
  5
11A
100
AcDbEntity
100
AcDbLine
  8
CADDY_2
 62
8
370
-1
  6
CONTINUOUS
 10
221.71923828125
 20
9.59844970703125
 30
0.0
 11
221.7932434082030966
 21
9.59844970703125
 31
0.0
  0
LINE
  5
11B
100
AcDbEntity
100
AcDbLine
  8
CADDY_2
 62
8
370
-1
  6
CONTINUOUS
 10
205.5127105712890909
 20
9.698272705078125
 30
0.0
 11
205.7347259521484091
 21
9.698272705078125
 31
0.0
  0
LINE
  5
11C
100
AcDbEntity
100
AcDbLine
  8
CADDY_2
 62
8
370
-1
  6
CONTINUOUS
 10
207.0667572021484091
 20
9.698272705078125
 30
0.0
 11
207.6587829589844034
 21
9.698272705078125
 31
0.0
  0
LINE
  5
11D
100
AcDbEntity
100
AcDbLine
  8
CADDY_2
 62
8
370
-1
  6
CONTINUOUS
 10
210.7669067382811932
 20
9.698272705078125
 30
0.0
 11
210.8408813476561932
 21
9.698272705078125
 31
0.0
  0
LINE
  5
11E
100
AcDbEntity
100
AcDbLine
  8
CADDY_2
 62
8
370
-1
  6
CONTINUOUS
 10
211.7288818359375
 20
9.698272705078125
 30
0.0
 11
211.8028869628905966
 21
9.698272705078125
 31
0.0
  0
LINE
  5
11F
100
AcDbEntity
100
AcDbLine
  8
CADDY_2
 62
8
370
-1
  6
CONTINUOUS
 10
213.4309387207030966
 20
9.698272705078125
 30
0.0
 11
213.5789642333984091
 21
9.698272705078125
 31
0.0
  0
LINE
  5
120
100
AcDbEntity
100
AcDbLine
  8
CADDY_2
 62
8
370
-1
  6
CONTINUOUS
 10
214.6150054931640909
 20
9.698272705078125
 30
0.0
 11
214.6889953613280966
 21
9.698272705078125
 31
0.0
  0
LINE
  5
121
100
AcDbEntity
100
AcDbLine
  8
CADDY_2
 62
8
370
-1
  6
CONTINUOUS
 10
217.205078125
 20
9.698272705078125
 30
0.0
 11
217.3530883789061932
 21
9.698272705078125
 31
0.0
  0
LINE
  5
122
100
AcDbEntity
100
AcDbLine
  8
CADDY_2
 62
8
370
-1
  6
CONTINUOUS
 10
218.9071350097655966
 20
9.698272705078125
 30
0.0
 11
219.1291656494140909
 21
9.698272705078125
 31
0.0
  0
LINE
  5
123
100
AcDbEntity
100
AcDbLine
  8
CADDY_2
 62
8
370
-1
  6
CONTINUOUS
 10
220.0171813964844034
 20
9.698272705078125
 30
0.0
 11
220.1651916503905966
 21
9.698272705078125
 31
0.0
  0
LINE
  5
124
100
AcDbEntity
100
AcDbLine
  8
CADDY_2
 62
8
370
-1
  6
CONTINUOUS
 10
221.1272277832030966
 20
9.698272705078125
 30
0.0
 11
221.1272277832030966
 21
9.698272705078125
 31
0.0
  0
LINE
  5
125
100
AcDbEntity
100
AcDbLine
  8
CADDY_2
 62
8
370
-1
  6
CONTINUOUS
 10
221.71923828125
 20
9.698272705078125
 30
0.0
 11
221.7932434082030966
 21
9.698272705078125
 31
0.0
  0
LINE
  5
126
100
AcDbEntity
100
AcDbLine
  8
CADDY_2
 62
8
370
-1
  6
CONTINUOUS
 10
205.6607055664061932
 20
9.798095703125
 30
0.0
 11
205.8827056884765909
 21
9.798095703125
 31
0.0
  0
LINE
  5
127
100
AcDbEntity
100
AcDbLine
  8
CADDY_2
 62
8
370
-1
  6
CONTINUOUS
 10
207.0667572021484091
 20
9.798095703125
 30
0.0
 11
207.7327880859375
 21
9.798095703125
 31
0.0
  0
LINE
  5
128
100
AcDbEntity
100
AcDbLine
  8
CADDY_2
 62
8
370
-1
  6
CONTINUOUS
 10
210.7669067382811932
 20
9.798095703125
 30
0.0
 11
210.8408813476561932
 21
9.798095703125
 31
0.0
  0
LINE
  5
129
100
AcDbEntity
100
AcDbLine
  8
CADDY_2
 62
8
370
-1
  6
CONTINUOUS
 10
211.7288818359375
 20
9.798095703125
 30
0.0
 11
211.8028869628905966
 21
9.798095703125
 31
0.0
  0
LINE
  5
12A
100
AcDbEntity
100
AcDbLine
  8
CADDY_2
 62
8
370
-1
  6
CONTINUOUS
 10
213.5049591064453125
 20
9.798095703125
 30
0.0
 11
213.5789642333984091
 21
9.798095703125
 31
0.0
  0
LINE
  5
12B
100
AcDbEntity
100
AcDbLine
  8
CADDY_2
 62
8
370
-1
  6
CONTINUOUS
 10
214.6150054931640909
 20
9.798095703125
 30
0.0
 11
214.6889953613280966
 21
9.798095703125
 31
0.0
  0
LINE
  5
12C
100
AcDbEntity
100
AcDbLine
  8
CADDY_2
 62
8
370
-1
  6
CONTINUOUS
 10
217.205078125
 20
9.798095703125
 30
0.0
 11
217.2790832519530966
 21
9.798095703125
 31
0.0
  0
LINE
  5
12D
100
AcDbEntity
100
AcDbLine
  8
CADDY_2
 62
8
370
-1
  6
CONTINUOUS
 10
218.3891143798828125
 20
9.798095703125
 30
0.0
 11
218.3891143798828125
 21
9.798095703125
 31
0.0
  0
LINE
  5
12E
100
AcDbEntity
100
AcDbLine
  8
CADDY_2
 62
8
370
-1
  6
CONTINUOUS
 10
218.9811401367188068
 20
9.798095703125
 30
0.0
 11
219.1291656494140909
 21
9.798095703125
 31
0.0
  0
LINE
  5
12F
100
AcDbEntity
100
AcDbLine
  8
CADDY_2
 62
8
370
-1
  6
CONTINUOUS
 10
220.0171813964844034
 20
9.798095703125
 30
0.0
 11
221.1272277832030966
 21
9.798095703125
 31
0.0
  0
LINE
  5
130
100
AcDbEntity
100
AcDbLine
  8
CADDY_2
 62
8
370
-1
  6
CONTINUOUS
 10
221.6452484130859091
 20
9.798095703125
 30
0.0
 11
221.71923828125
 21
9.798095703125
 31
0.0
  0
LINE
  5
131
100
AcDbEntity
100
AcDbLine
  8
CADDY_2
 62
8
370
-1
  6
CONTINUOUS
 10
205.7347259521484091
 20
9.8979339599609375
 30
0.0
 11
205.9567108154296875
 21
9.8979339599609375
 31
0.0
  0
LINE
  5
132
100
AcDbEntity
100
AcDbLine
  8
CADDY_2
 62
8
370
-1
  6
CONTINUOUS
 10
207.0667572021484091
 20
9.8979339599609375
 30
0.0
 11
207.8067779541015909
 21
9.8979339599609375
 31
0.0
  0
LINE
  5
133
100
AcDbEntity
100
AcDbLine
  8
CADDY_2
 62
8
370
-1
  6
CONTINUOUS
 10
211.7288818359375
 20
9.8979339599609375
 30
0.0
 11
211.8028869628905966
 21
9.8979339599609375
 31
0.0
  0
LINE
  5
134
100
AcDbEntity
100
AcDbLine
  8
CADDY_2
 62
8
370
-1
  6
CONTINUOUS
 10
213.4309387207030966
 20
9.8979339599609375
 30
0.0
 11
213.5789642333984091
 21
9.8979339599609375
 31
0.0
  0
LINE
  5
135
100
AcDbEntity
100
AcDbLine
  8
CADDY_2
 62
8
370
-1
  6
CONTINUOUS
 10
214.6150054931640909
 20
9.8979339599609375
 30
0.0
 11
214.6889953613280966
 21
9.8979339599609375
 31
0.0
  0
LINE
  5
136
100
AcDbEntity
100
AcDbLine
  8
CADDY_2
 62
8
370
-1
  6
CONTINUOUS
 10
217.205078125
 20
9.8979339599609375
 30
0.0
 11
217.2790832519530966
 21
9.8979339599609375
 31
0.0
  0
LINE
  5
137
100
AcDbEntity
100
AcDbLine
  8
CADDY_2
 62
8
370
-1
  6
CONTINUOUS
 10
218.9811401367188068
 20
9.8979339599609375
 30
0.0
 11
219.1291656494140909
 21
9.8979339599609375
 31
0.0
  0
LINE
  5
138
100
AcDbEntity
100
AcDbLine
  8
CADDY_2
 62
8
370
-1
  6
CONTINUOUS
 10
220.0911712646484091
 20
9.8979339599609375
 30
0.0
 11
221.0532379150390909
 21
9.8979339599609375
 31
0.0
  0
LINE
  5
139
100
AcDbEntity
100
AcDbLine
  8
CADDY_2
 62
8
370
-1
  6
CONTINUOUS
 10
221.6452484130859091
 20
9.8979339599609375
 30
0.0
 11
221.71923828125
 21
9.8979339599609375
 31
0.0
  0
LINE
  5
13A
100
AcDbEntity
100
AcDbLine
  8
CADDY_2
 62
8
370
-1
  6
CONTINUOUS
 10
205.8827056884765909
 20
9.9977569580078125
 30
0.0
 11
206.0307312011719034
 21
9.9977569580078125
 31
0.0
  0
LINE
  5
13B
100
AcDbEntity
100
AcDbLine
  8
CADDY_2
 62
8
370
-1
  6
CONTINUOUS
 10
207.1407775878905966
 20
9.9977569580078125
 30
0.0
 11
207.8067779541015909
 21
9.9977569580078125
 31
0.0
  0
LINE
  5
13C
100
AcDbEntity
100
AcDbLine
  8
CADDY_2
 62
8
370
-1
  6
CONTINUOUS
 10
209.1388397216796875
 20
9.9977569580078125
 30
0.0
 11
209.1388397216796875
 21
9.9977569580078125
 31
0.0
  0
LINE
  5
13D
100
AcDbEntity
100
AcDbLine
  8
CADDY_2
 62
8
370
-1
  6
CONTINUOUS
 10
211.7288818359375
 20
9.9977569580078125
 30
0.0
 11
211.8769073486328125
 21
9.9977569580078125
 31
0.0
  0
LINE
  5
13E
100
AcDbEntity
100
AcDbLine
  8
CADDY_2
 62
8
370
-1
  6
CONTINUOUS
 10
213.4309387207030966
 20
9.9977569580078125
 30
0.0
 11
213.5789642333984091
 21
9.9977569580078125
 31
0.0
  0
LINE
  5
13F
100
AcDbEntity
100
AcDbLine
  8
CADDY_2
 62
8
370
-1
  6
CONTINUOUS
 10
214.6150054931640909
 20
9.9977569580078125
 30
0.0
 11
214.6889953613280966
 21
9.9977569580078125
 31
0.0
  0
LINE
  5
140
100
AcDbEntity
100
AcDbLine
  8
CADDY_2
 62
8
370
-1
  6
CONTINUOUS
 10
217.205078125
 20
9.9977569580078125
 30
0.0
 11
217.2790832519530966
 21
9.9977569580078125
 31
0.0
  0
LINE
  5
141
100
AcDbEntity
100
AcDbLine
  8
CADDY_2
 62
8
370
-1
  6
CONTINUOUS
 10
218.9811401367188068
 20
9.9977569580078125
 30
0.0
 11
219.0551605224609091
 21
9.9977569580078125
 31
0.0
  0
LINE
  5
142
100
AcDbEntity
100
AcDbLine
  8
CADDY_2
 62
8
370
-1
  6
CONTINUOUS
 10
221.6452484130859091
 20
9.9977569580078125
 30
0.0
 11
221.6452484130859091
 21
9.9977569580078125
 31
0.0
  0
LINE
  5
143
100
AcDbEntity
100
AcDbLine
  8
CADDY_2
 62
8
370
-1
  6
CONTINUOUS
 10
205.8827056884765909
 20
10.09759521484375
 30
0.0
 11
206.0307312011719034
 21
10.09759521484375
 31
0.0
  0
LINE
  5
144
100
AcDbEntity
100
AcDbLine
  8
CADDY_2
 62
8
370
-1
  6
CONTINUOUS
 10
207.2147521972655966
 20
10.09759521484375
 30
0.0
 11
207.8067779541015909
 21
10.09759521484375
 31
0.0
  0
LINE
  5
145
100
AcDbEntity
100
AcDbLine
  8
CADDY_2
 62
8
370
-1
  6
CONTINUOUS
 10
209.0648345947265909
 20
10.09759521484375
 30
0.0
 11
209.0648345947265909
 21
10.09759521484375
 31
0.0
  0
LINE
  5
146
100
AcDbEntity
100
AcDbLine
  8
CADDY_2
 62
8
370
-1
  6
CONTINUOUS
 10
211.7288818359375
 20
10.09759521484375
 30
0.0
 11
211.8769073486328125
 21
10.09759521484375
 31
0.0
  0
LINE
  5
147
100
AcDbEntity
100
AcDbLine
  8
CADDY_2
 62
8
370
-1
  6
CONTINUOUS
 10
213.4309387207030966
 20
10.09759521484375
 30
0.0
 11
213.5789642333984091
 21
10.09759521484375
 31
0.0
  0
LINE
  5
148
100
AcDbEntity
100
AcDbLine
  8
CADDY_2
 62
8
370
-1
  6
CONTINUOUS
 10
214.6150054931640909
 20
10.09759521484375
 30
0.0
 11
214.6889953613280966
 21
10.09759521484375
 31
0.0
  0
LINE
  5
149
100
AcDbEntity
100
AcDbLine
  8
CADDY_2
 62
8
370
-1
  6
CONTINUOUS
 10
217.205078125
 20
10.09759521484375
 30
0.0
 11
217.2790832519530966
 21
10.09759521484375
 31
0.0
  0
LINE
  5
14A
100
AcDbEntity
100
AcDbLine
  8
CADDY_2
 62
8
370
-1
  6
CONTINUOUS
 10
218.9811401367188068
 20
10.09759521484375
 30
0.0
 11
219.0551605224609091
 21
10.09759521484375
 31
0.0
  0
LINE
  5
14B
100
AcDbEntity
100
AcDbLine
  8
CADDY_2
 62
8
370
-1
  6
CONTINUOUS
 10
221.5712432861328125
 20
10.09759521484375
 30
0.0
 11
221.6452484130859091
 21
10.09759521484375
 31
0.0
  0
LINE
  5
14C
100
AcDbEntity
100
AcDbLine
  8
CADDY_2
 62
8
370
-1
  6
CONTINUOUS
 10
205.9567108154296875
 20
10.1974182128906197
 30
0.0
 11
206.1047058105469034
 21
10.1974182128906197
 31
0.0
  0
LINE
  5
14D
100
AcDbEntity
100
AcDbLine
  8
CADDY_2
 62
8
370
-1
  6
CONTINUOUS
 10
207.2147521972655966
 20
10.1974182128906197
 30
0.0
 11
207.8067779541015909
 21
10.1974182128906197
 31
0.0
  0
LINE
  5
14E
100
AcDbEntity
100
AcDbLine
  8
CADDY_2
 62
8
370
-1
  6
CONTINUOUS
 10
208.9168090820311932
 20
10.1974182128906197
 30
0.0
 11
208.9908142089844034
 21
10.1974182128906197
 31
0.0
  0
LINE
  5
14F
100
AcDbEntity
100
AcDbLine
  8
CADDY_2
 62
8
370
-1
  6
CONTINUOUS
 10
211.7288818359375
 20
10.1974182128906197
 30
0.0
 11
211.8769073486328125
 21
10.1974182128906197
 31
0.0
  0
LINE
  5
150
100
AcDbEntity
100
AcDbLine
  8
CADDY_2
 62
8
370
-1
  6
CONTINUOUS
 10
213.4309387207030966
 20
10.1974182128906197
 30
0.0
 11
213.5789642333984091
 21
10.1974182128906197
 31
0.0
  0
LINE
  5
151
100
AcDbEntity
100
AcDbLine
  8
CADDY_2
 62
8
370
-1
  6
CONTINUOUS
 10
214.6150054931640909
 20
10.1974182128906197
 30
0.0
 11
214.6889953613280966
 21
10.1974182128906197
 31
0.0
  0
LINE
  5
152
100
AcDbEntity
100
AcDbLine
  8
CADDY_2
 62
8
370
-1
  6
CONTINUOUS
 10
217.205078125
 20
10.1974182128906197
 30
0.0
 11
217.2790832519530966
 21
10.1974182128906197
 31
0.0
  0
LINE
  5
153
100
AcDbEntity
100
AcDbLine
  8
CADDY_2
 62
8
370
-1
  6
CONTINUOUS
 10
218.9811401367188068
 20
10.1974182128906197
 30
0.0
 11
218.9811401367188068
 21
10.1974182128906197
 31
0.0
  0
LINE
  5
154
100
AcDbEntity
100
AcDbLine
  8
CADDY_2
 62
8
370
-1
  6
CONTINUOUS
 10
221.5712432861328125
 20
10.1974182128906197
 30
0.0
 11
221.5712432861328125
 21
10.1974182128906197
 31
0.0
  0
LINE
  5
155
100
AcDbEntity
100
AcDbLine
  8
CADDY_2
 62
8
370
-1
  6
CONTINUOUS
 10
206.0307312011719034
 20
10.2972564697265607
 30
0.0
 11
206.1047058105469034
 21
10.2972564697265607
 31
0.0
  0
LINE
  5
156
100
AcDbEntity
100
AcDbLine
  8
CADDY_2
 62
8
370
-1
  6
CONTINUOUS
 10
207.2147521972655966
 20
10.2972564697265607
 30
0.0
 11
207.8067779541015909
 21
10.2972564697265607
 31
0.0
  0
LINE
  5
157
100
AcDbEntity
100
AcDbLine
  8
CADDY_2
 62
8
370
-1
  6
CONTINUOUS
 10
208.9168090820311932
 20
10.2972564697265607
 30
0.0
 11
208.9908142089844034
 21
10.2972564697265607
 31
0.0
  0
LINE
  5
158
100
AcDbEntity
100
AcDbLine
  8
CADDY_2
 62
8
370
-1
  6
CONTINUOUS
 10
211.7288818359375
 20
10.2972564697265607
 30
0.0
 11
211.8769073486328125
 21
10.2972564697265607
 31
0.0
  0
LINE
  5
159
100
AcDbEntity
100
AcDbLine
  8
CADDY_2
 62
8
370
-1
  6
CONTINUOUS
 10
212.9129333496094034
 20
10.2972564697265607
 30
0.0
 11
212.9129333496094034
 21
10.2972564697265607
 31
0.0
  0
LINE
  5
15A
100
AcDbEntity
100
AcDbLine
  8
CADDY_2
 62
8
370
-1
  6
CONTINUOUS
 10
213.4309387207030966
 20
10.2972564697265607
 30
0.0
 11
213.5789642333984091
 21
10.2972564697265607
 31
0.0
  0
LINE
  5
15B
100
AcDbEntity
100
AcDbLine
  8
CADDY_2
 62
8
370
-1
  6
CONTINUOUS
 10
214.6150054931640909
 20
10.2972564697265607
 30
0.0
 11
214.6889953613280966
 21
10.2972564697265607
 31
0.0
  0
LINE
  5
15C
100
AcDbEntity
100
AcDbLine
  8
CADDY_2
 62
8
370
-1
  6
CONTINUOUS
 10
217.205078125
 20
10.2972564697265607
 30
0.0
 11
217.2790832519530966
 21
10.2972564697265607
 31
0.0
  0
LINE
  5
15D
100
AcDbEntity
100
AcDbLine
  8
CADDY_2
 62
8
370
-1
  6
CONTINUOUS
 10
218.3891143798828125
 20
10.2972564697265607
 30
0.0
 11
218.3891143798828125
 21
10.2972564697265607
 31
0.0
  0
LINE
  5
15E
100
AcDbEntity
100
AcDbLine
  8
CADDY_2
 62
8
370
-1
  6
CONTINUOUS
 10
218.9811401367188068
 20
10.2972564697265607
 30
0.0
 11
218.9811401367188068
 21
10.2972564697265607
 31
0.0
  0
LINE
  5
15F
100
AcDbEntity
100
AcDbLine
  8
CADDY_2
 62
8
370
-1
  6
CONTINUOUS
 10
220.0911712646484091
 20
10.2972564697265607
 30
0.0
 11
220.0911712646484091
 21
10.2972564697265607
 31
0.0
  0
LINE
  5
160
100
AcDbEntity
100
AcDbLine
  8
CADDY_2
 62
8
370
-1
  6
CONTINUOUS
 10
221.4972229003905966
 20
10.2972564697265607
 30
0.0
 11
221.5712432861328125
 21
10.2972564697265607
 31
0.0
  0
LINE
  5
161
100
AcDbEntity
100
AcDbLine
  8
CADDY_2
 62
8
370
-1
  6
CONTINUOUS
 10
206.0307312011719034
 20
10.3970642089843803
 30
0.0
 11
206.1787109375
 21
10.3970642089843803
 31
0.0
  0
LINE
  5
162
100
AcDbEntity
100
AcDbLine
  8
CADDY_2
 62
8
370
-1
  6
CONTINUOUS
 10
207.2147521972655966
 20
10.3970642089843803
 30
0.0
 11
207.8067779541015909
 21
10.3970642089843803
 31
0.0
  0
LINE
  5
163
100
AcDbEntity
100
AcDbLine
  8
CADDY_2
 62
8
370
-1
  6
CONTINUOUS
 10
208.9168090820311932
 20
10.3970642089843803
 30
0.0
 11
208.9908142089844034
 21
10.3970642089843803
 31
0.0
  0
LINE
  5
164
100
AcDbEntity
100
AcDbLine
  8
CADDY_2
 62
8
370
-1
  6
CONTINUOUS
 10
211.7288818359375
 20
10.3970642089843803
 30
0.0
 11
212.8389282226561932
 21
10.3970642089843803
 31
0.0
  0
LINE
  5
165
100
AcDbEntity
100
AcDbLine
  8
CADDY_2
 62
8
370
-1
  6
CONTINUOUS
 10
213.4309387207030966
 20
10.3970642089843803
 30
0.0
 11
213.5789642333984091
 21
10.3970642089843803
 31
0.0
  0
LINE
  5
166
100
AcDbEntity
100
AcDbLine
  8
CADDY_2
 62
8
370
-1
  6
CONTINUOUS
 10
214.6150054931640909
 20
10.3970642089843803
 30
0.0
 11
216.0950469970703125
 21
10.3970642089843803
 31
0.0
  0
LINE
  5
167
100
AcDbEntity
100
AcDbLine
  8
CADDY_2
 62
8
370
-1
  6
CONTINUOUS
 10
217.205078125
 20
10.3970642089843803
 30
0.0
 11
218.3891143798828125
 21
10.3970642089843803
 31
0.0
  0
LINE
  5
168
100
AcDbEntity
100
AcDbLine
  8
CADDY_2
 62
8
370
-1
  6
CONTINUOUS
 10
218.9071350097655966
 20
10.3970642089843803
 30
0.0
 11
218.9071350097655966
 21
10.3970642089843803
 31
0.0
  0
LINE
  5
169
100
AcDbEntity
100
AcDbLine
  8
CADDY_2
 62
8
370
-1
  6
CONTINUOUS
 10
220.1651916503905966
 20
10.3970642089843803
 30
0.0
 11
220.4612121582030966
 21
10.3970642089843803
 31
0.0
  0
LINE
  5
16A
100
AcDbEntity
100
AcDbLine
  8
CADDY_2
 62
8
370
-1
  6
CONTINUOUS
 10
221.4972229003905966
 20
10.3970642089843803
 30
0.0
 11
221.4972229003905966
 21
10.3970642089843803
 31
0.0
  0
LINE
  5
16B
100
AcDbEntity
100
AcDbLine
  8
CADDY_2
 62
8
370
-1
  6
CONTINUOUS
 10
206.0307312011719034
 20
10.4969024658203107
 30
0.0
 11
206.1787109375
 21
10.4969024658203107
 31
0.0
  0
LINE
  5
16C
100
AcDbEntity
100
AcDbLine
  8
CADDY_2
 62
8
370
-1
  6
CONTINUOUS
 10
207.2147521972655966
 20
10.4969024658203107
 30
0.0
 11
207.8067779541015909
 21
10.4969024658203107
 31
0.0
  0
LINE
  5
16D
100
AcDbEntity
100
AcDbLine
  8
CADDY_2
 62
8
370
-1
  6
CONTINUOUS
 10
208.9168090820311932
 20
10.4969024658203107
 30
0.0
 11
208.9908142089844034
 21
10.4969024658203107
 31
0.0
  0
LINE
  5
16E
100
AcDbEntity
100
AcDbLine
  8
CADDY_2
 62
8
370
-1
  6
CONTINUOUS
 10
211.7288818359375
 20
10.4969024658203107
 30
0.0
 11
211.7288818359375
 21
10.4969024658203107
 31
0.0
  0
LINE
  5
16F
100
AcDbEntity
100
AcDbLine
  8
CADDY_2
 62
8
370
-1
  6
CONTINUOUS
 10
213.4309387207030966
 20
10.4969024658203107
 30
0.0
 11
213.5789642333984091
 21
10.4969024658203107
 31
0.0
  0
LINE
  5
170
100
AcDbEntity
100
AcDbLine
  8
CADDY_2
 62
8
370
-1
  6
CONTINUOUS
 10
216.0210571289061932
 20
10.4969024658203107
 30
0.0
 11
216.0950469970703125
 21
10.4969024658203107
 31
0.0
  0
LINE
  5
171
100
AcDbEntity
100
AcDbLine
  8
CADDY_2
 62
8
370
-1
  6
CONTINUOUS
 10
218.8331604003905966
 20
10.4969024658203107
 30
0.0
 11
218.8331604003905966
 21
10.4969024658203107
 31
0.0
  0
LINE
  5
172
100
AcDbEntity
100
AcDbLine
  8
CADDY_2
 62
8
370
-1
  6
CONTINUOUS
 10
220.2392120361328125
 20
10.4969024658203107
 30
0.0
 11
220.3871917724609091
 21
10.4969024658203107
 31
0.0
  0
LINE
  5
173
100
AcDbEntity
100
AcDbLine
  8
CADDY_2
 62
8
370
-1
  6
CONTINUOUS
 10
221.4232177734375
 20
10.4969024658203107
 30
0.0
 11
221.4972229003905966
 21
10.4969024658203107
 31
0.0
  0
LINE
  5
174
100
AcDbEntity
100
AcDbLine
  8
CADDY_2
 62
8
370
-1
  6
CONTINUOUS
 10
206.1047058105469034
 20
10.59674072265625
 30
0.0
 11
206.1787109375
 21
10.59674072265625
 31
0.0
  0
LINE
  5
175
100
AcDbEntity
100
AcDbLine
  8
CADDY_2
 62
8
370
-1
  6
CONTINUOUS
 10
207.2147521972655966
 20
10.59674072265625
 30
0.0
 11
207.8067779541015909
 21
10.59674072265625
 31
0.0
  0
LINE
  5
176
100
AcDbEntity
100
AcDbLine
  8
CADDY_2
 62
8
370
-1
  6
CONTINUOUS
 10
208.9168090820311932
 20
10.59674072265625
 30
0.0
 11
208.9908142089844034
 21
10.59674072265625
 31
0.0
  0
LINE
  5
177
100
AcDbEntity
100
AcDbLine
  8
CADDY_2
 62
8
370
-1
  6
CONTINUOUS
 10
213.4309387207030966
 20
10.59674072265625
 30
0.0
 11
213.5789642333984091
 21
10.59674072265625
 31
0.0
  0
LINE
  5
178
100
AcDbEntity
100
AcDbLine
  8
CADDY_2
 62
8
370
-1
  6
CONTINUOUS
 10
216.0210571289061932
 20
10.59674072265625
 30
0.0
 11
216.0950469970703125
 21
10.59674072265625
 31
0.0
  0
LINE
  5
179
100
AcDbEntity
100
AcDbLine
  8
CADDY_2
 62
8
370
-1
  6
CONTINUOUS
 10
218.7591400146484091
 20
10.59674072265625
 30
0.0
 11
218.7591400146484091
 21
10.59674072265625
 31
0.0
  0
LINE
  5
17A
100
AcDbEntity
100
AcDbLine
  8
CADDY_2
 62
8
370
-1
  6
CONTINUOUS
 10
220.2392120361328125
 20
10.59674072265625
 30
0.0
 11
220.4612121582030966
 21
10.59674072265625
 31
0.0
  0
LINE
  5
17B
100
AcDbEntity
100
AcDbLine
  8
CADDY_2
 62
8
370
-1
  6
CONTINUOUS
 10
221.4232177734375
 20
10.59674072265625
 30
0.0
 11
221.4232177734375
 21
10.59674072265625
 31
0.0
  0
LINE
  5
17C
100
AcDbEntity
100
AcDbLine
  8
CADDY_2
 62
8
370
-1
  6
CONTINUOUS
 10
206.1047058105469034
 20
10.6965637207031197
 30
0.0
 11
206.1787109375
 21
10.6965637207031197
 31
0.0
  0
LINE
  5
17D
100
AcDbEntity
100
AcDbLine
  8
CADDY_2
 62
8
370
-1
  6
CONTINUOUS
 10
207.2147521972655966
 20
10.6965637207031197
 30
0.0
 11
207.8067779541015909
 21
10.6965637207031197
 31
0.0
  0
LINE
  5
17E
100
AcDbEntity
100
AcDbLine
  8
CADDY_2
 62
8
370
-1
  6
CONTINUOUS
 10
208.9168090820311932
 20
10.6965637207031197
 30
0.0
 11
208.9908142089844034
 21
10.6965637207031197
 31
0.0
  0
LINE
  5
17F
100
AcDbEntity
100
AcDbLine
  8
CADDY_2
 62
8
370
-1
  6
CONTINUOUS
 10
213.4309387207030966
 20
10.6965637207031197
 30
0.0
 11
213.5789642333984091
 21
10.6965637207031197
 31
0.0
  0
LINE
  5
180
100
AcDbEntity
100
AcDbLine
  8
CADDY_2
 62
8
370
-1
  6
CONTINUOUS
 10
216.0210571289061932
 20
10.6965637207031197
 30
0.0
 11
216.0950469970703125
 21
10.6965637207031197
 31
0.0
  0
LINE
  5
181
100
AcDbEntity
100
AcDbLine
  8
CADDY_2
 62
8
370
-1
  6
CONTINUOUS
 10
218.6111297607421875
 20
10.6965637207031197
 30
0.0
 11
218.7591400146484091
 21
10.6965637207031197
 31
0.0
  0
LINE
  5
182
100
AcDbEntity
100
AcDbLine
  8
CADDY_2
 62
8
370
-1
  6
CONTINUOUS
 10
220.3131866455078125
 20
10.6965637207031197
 30
0.0
 11
220.4612121582030966
 21
10.6965637207031197
 31
0.0
  0
LINE
  5
183
100
AcDbEntity
100
AcDbLine
  8
CADDY_2
 62
8
370
-1
  6
CONTINUOUS
 10
221.3492431640625
 20
10.6965637207031197
 30
0.0
 11
221.4232177734375
 21
10.6965637207031197
 31
0.0
  0
LINE
  5
184
100
AcDbEntity
100
AcDbLine
  8
CADDY_2
 62
8
370
-1
  6
CONTINUOUS
 10
206.1047058105469034
 20
10.79638671875
 30
0.0
 11
206.1787109375
 21
10.79638671875
 31
0.0
  0
LINE
  5
185
100
AcDbEntity
100
AcDbLine
  8
CADDY_2
 62
8
370
-1
  6
CONTINUOUS
 10
207.2147521972655966
 20
10.79638671875
 30
0.0
 11
207.8067779541015909
 21
10.79638671875
 31
0.0
  0
LINE
  5
186
100
AcDbEntity
100
AcDbLine
  8
CADDY_2
 62
8
370
-1
  6
CONTINUOUS
 10
208.9168090820311932
 20
10.79638671875
 30
0.0
 11
208.9908142089844034
 21
10.79638671875
 31
0.0
  0
LINE
  5
187
100
AcDbEntity
100
AcDbLine
  8
CADDY_2
 62
8
370
-1
  6
CONTINUOUS
 10
213.4309387207030966
 20
10.79638671875
 30
0.0
 11
213.5789642333984091
 21
10.79638671875
 31
0.0
  0
LINE
  5
188
100
AcDbEntity
100
AcDbLine
  8
CADDY_2
 62
8
370
-1
  6
CONTINUOUS
 10
218.6111297607421875
 20
10.79638671875
 30
0.0
 11
218.7591400146484091
 21
10.79638671875
 31
0.0
  0
LINE
  5
189
100
AcDbEntity
100
AcDbLine
  8
CADDY_2
 62
8
370
-1
  6
CONTINUOUS
 10
220.3131866455078125
 20
10.79638671875
 30
0.0
 11
220.4612121582030966
 21
10.79638671875
 31
0.0
  0
LINE
  5
18A
100
AcDbEntity
100
AcDbLine
  8
CADDY_2
 62
8
370
-1
  6
CONTINUOUS
 10
221.3492431640625
 20
10.79638671875
 30
0.0
 11
221.4232177734375
 21
10.79638671875
 31
0.0
  0
LINE
  5
18B
100
AcDbEntity
100
AcDbLine
  8
CADDY_2
 62
8
370
-1
  6
CONTINUOUS
 10
206.0307312011719034
 20
10.8962097167968803
 30
0.0
 11
206.1787109375
 21
10.8962097167968803
 31
0.0
  0
LINE
  5
18C
100
AcDbEntity
100
AcDbLine
  8
CADDY_2
 62
8
370
-1
  6
CONTINUOUS
 10
207.2147521972655966
 20
10.8962097167968803
 30
0.0
 11
207.8067779541015909
 21
10.8962097167968803
 31
0.0
  0
LINE
  5
18D
100
AcDbEntity
100
AcDbLine
  8
CADDY_2
 62
8
370
-1
  6
CONTINUOUS
 10
208.9168090820311932
 20
10.8962097167968803
 30
0.0
 11
209.1388397216796875
 21
10.8962097167968803
 31
0.0
  0
LINE
  5
18E
100
AcDbEntity
100
AcDbLine
  8
CADDY_2
 62
8
370
-1
  6
CONTINUOUS
 10
213.4309387207030966
 20
10.8962097167968803
 30
0.0
 11
213.5789642333984091
 21
10.8962097167968803
 31
0.0
  0
LINE
  5
18F
100
AcDbEntity
100
AcDbLine
  8
CADDY_2
 62
8
370
-1
  6
CONTINUOUS
 10
218.6111297607421875
 20
10.8962097167968803
 30
0.0
 11
218.9071350097655966
 21
10.8962097167968803
 31
0.0
  0
LINE
  5
190
100
AcDbEntity
100
AcDbLine
  8
CADDY_2
 62
8
370
-1
  6
CONTINUOUS
 10
220.3871917724609091
 20
10.8962097167968803
 30
0.0
 11
220.5352172851561932
 21
10.8962097167968803
 31
0.0
  0
LINE
  5
191
100
AcDbEntity
100
AcDbLine
  8
CADDY_2
 62
8
370
-1
  6
CONTINUOUS
 10
221.2752380371094034
 20
10.8962097167968803
 30
0.0
 11
221.3492431640625
 21
10.8962097167968803
 31
0.0
  0
LINE
  5
192
100
AcDbEntity
100
AcDbLine
  8
CADDY_2
 62
8
370
-1
  6
CONTINUOUS
 10
206.0307312011719034
 20
10.9960479736328107
 30
0.0
 11
206.1047058105469034
 21
10.9960479736328107
 31
0.0
  0
LINE
  5
193
100
AcDbEntity
100
AcDbLine
  8
CADDY_2
 62
8
370
-1
  6
CONTINUOUS
 10
207.2147521972655966
 20
10.9960479736328107
 30
0.0
 11
207.8067779541015909
 21
10.9960479736328107
 31
0.0
  0
LINE
  5
194
100
AcDbEntity
100
AcDbLine
  8
CADDY_2
 62
8
370
-1
  6
CONTINUOUS
 10
208.9168090820311932
 20
10.9960479736328107
 30
0.0
 11
209.1388397216796875
 21
10.9960479736328107
 31
0.0
  0
LINE
  5
195
100
AcDbEntity
100
AcDbLine
  8
CADDY_2
 62
8
370
-1
  6
CONTINUOUS
 10
211.7288818359375
 20
10.9960479736328107
 30
0.0
 11
211.8769073486328125
 21
10.9960479736328107
 31
0.0
  0
LINE
  5
196
100
AcDbEntity
100
AcDbLine
  8
CADDY_2
 62
8
370
-1
  6
CONTINUOUS
 10
213.4309387207030966
 20
10.9960479736328107
 30
0.0
 11
213.5789642333984091
 21
10.9960479736328107
 31
0.0
  0
LINE
  5
197
100
AcDbEntity
100
AcDbLine
  8
CADDY_2
 62
8
370
-1
  6
CONTINUOUS
 10
214.6150054931640909
 20
10.9960479736328107
 30
0.0
 11
214.6889953613280966
 21
10.9960479736328107
 31
0.0
  0
LINE
  5
198
100
AcDbEntity
100
AcDbLine
  8
CADDY_2
 62
8
370
-1
  6
CONTINUOUS
 10
217.205078125
 20
10.9960479736328107
 30
0.0
 11
217.3530883789061932
 21
10.9960479736328107
 31
0.0
  0
LINE
  5
199
100
AcDbEntity
100
AcDbLine
  8
CADDY_2
 62
8
370
-1
  6
CONTINUOUS
 10
218.6851348876953125
 20
10.9960479736328107
 30
0.0
 11
218.9071350097655966
 21
10.9960479736328107
 31
0.0
  0
LINE
  5
19A
100
AcDbEntity
100
AcDbLine
  8
CADDY_2
 62
8
370
-1
  6
CONTINUOUS
 10
220.3871917724609091
 20
10.9960479736328107
 30
0.0
 11
220.6831970214844034
 21
10.9960479736328107
 31
0.0
  0
LINE
  5
19B
100
AcDbEntity
100
AcDbLine
  8
CADDY_2
 62
8
370
-1
  6
CONTINUOUS
 10
221.2752380371094034
 20
10.9960479736328107
 30
0.0
 11
221.2752380371094034
 21
10.9960479736328107
 31
0.0
  0
LINE
  5
19C
100
AcDbEntity
100
AcDbLine
  8
CADDY_2
 62
8
370
-1
  6
CONTINUOUS
 10
206.0307312011719034
 20
11.0958709716796893
 30
0.0
 11
206.1047058105469034
 21
11.0958709716796893
 31
0.0
  0
LINE
  5
19D
100
AcDbEntity
100
AcDbLine
  8
CADDY_2
 62
8
370
-1
  6
CONTINUOUS
 10
207.2147521972655966
 20
11.0958709716796893
 30
0.0
 11
207.8067779541015909
 21
11.0958709716796893
 31
0.0
  0
LINE
  5
19E
100
AcDbEntity
100
AcDbLine
  8
CADDY_2
 62
8
370
-1
  6
CONTINUOUS
 10
208.9168090820311932
 20
11.0958709716796893
 30
0.0
 11
209.2128295898438068
 21
11.0958709716796893
 31
0.0
  0
LINE
  5
19F
100
AcDbEntity
100
AcDbLine
  8
CADDY_2
 62
8
370
-1
  6
CONTINUOUS
 10
210.7669067382811932
 20
11.0958709716796893
 30
0.0
 11
210.8408813476561932
 21
11.0958709716796893
 31
0.0
  0
LINE
  5
1A0
100
AcDbEntity
100
AcDbLine
  8
CADDY_2
 62
8
370
-1
  6
CONTINUOUS
 10
211.7288818359375
 20
11.0958709716796893
 30
0.0
 11
211.8028869628905966
 21
11.0958709716796893
 31
0.0
  0
LINE
  5
1A1
100
AcDbEntity
100
AcDbLine
  8
CADDY_2
 62
8
370
-1
  6
CONTINUOUS
 10
213.4309387207030966
 20
11.0958709716796893
 30
0.0
 11
213.5789642333984091
 21
11.0958709716796893
 31
0.0
  0
LINE
  5
1A2
100
AcDbEntity
100
AcDbLine
  8
CADDY_2
 62
8
370
-1
  6
CONTINUOUS
 10
214.6150054931640909
 20
11.0958709716796893
 30
0.0
 11
214.6889953613280966
 21
11.0958709716796893
 31
0.0
  0
LINE
  5
1A3
100
AcDbEntity
100
AcDbLine
  8
CADDY_2
 62
8
370
-1
  6
CONTINUOUS
 10
217.205078125
 20
11.0958709716796893
 30
0.0
 11
217.2790832519530966
 21
11.0958709716796893
 31
0.0
  0
LINE
  5
1A4
100
AcDbEntity
100
AcDbLine
  8
CADDY_2
 62
8
370
-1
  6
CONTINUOUS
 10
218.7591400146484091
 20
11.0958709716796893
 30
0.0
 11
218.9071350097655966
 21
11.0958709716796893
 31
0.0
  0
LINE
  5
1A5
100
AcDbEntity
100
AcDbLine
  8
CADDY_2
 62
8
370
-1
  6
CONTINUOUS
 10
220.3871917724609091
 20
11.0958709716796893
 30
0.0
 11
220.6091918945311932
 21
11.0958709716796893
 31
0.0
  0
LINE
  5
1A6
100
AcDbEntity
100
AcDbLine
  8
CADDY_2
 62
8
370
-1
  6
CONTINUOUS
 10
221.2012329101561932
 20
11.0958709716796893
 30
0.0
 11
221.2752380371094034
 21
11.0958709716796893
 31
0.0
  0
LINE
  5
1A7
100
AcDbEntity
100
AcDbLine
  8
CADDY_2
 62
8
370
-1
  6
CONTINUOUS
 10
205.9567108154296875
 20
11.1957092285156197
 30
0.0
 11
206.1047058105469034
 21
11.1957092285156197
 31
0.0
  0
LINE
  5
1A8
100
AcDbEntity
100
AcDbLine
  8
CADDY_2
 62
8
370
-1
  6
CONTINUOUS
 10
207.2147521972655966
 20
11.1957092285156197
 30
0.0
 11
207.8067779541015909
 21
11.1957092285156197
 31
0.0
  0
LINE
  5
1A9
100
AcDbEntity
100
AcDbLine
  8
CADDY_2
 62
8
370
-1
  6
CONTINUOUS
 10
209.0648345947265909
 20
11.1957092285156197
 30
0.0
 11
209.3608551025390909
 21
11.1957092285156197
 31
0.0
  0
LINE
  5
1AA
100
AcDbEntity
100
AcDbLine
  8
CADDY_2
 62
8
370
-1
  6
CONTINUOUS
 10
210.4708862304688068
 20
11.1957092285156197
 30
0.0
 11
210.6188812255859091
 21
11.1957092285156197
 31
0.0
  0
LINE
  5
1AB
100
AcDbEntity
100
AcDbLine
  8
CADDY_2
 62
8
370
-1
  6
CONTINUOUS
 10
210.7669067382811932
 20
11.1957092285156197
 30
0.0
 11
210.8408813476561932
 21
11.1957092285156197
 31
0.0
  0
LINE
  5
1AC
100
AcDbEntity
100
AcDbLine
  8
CADDY_2
 62
8
370
-1
  6
CONTINUOUS
 10
211.7288818359375
 20
11.1957092285156197
 30
0.0
 11
211.8028869628905966
 21
11.1957092285156197
 31
0.0
  0
LINE
  5
1AD
100
AcDbEntity
100
AcDbLine
  8
CADDY_2
 62
8
370
-1
  6
CONTINUOUS
 10
213.4309387207030966
 20
11.1957092285156197
 30
0.0
 11
213.5789642333984091
 21
11.1957092285156197
 31
0.0
  0
LINE
  5
1AE
100
AcDbEntity
100
AcDbLine
  8
CADDY_2
 62
8
370
-1
  6
CONTINUOUS
 10
214.6150054931640909
 20
11.1957092285156197
 30
0.0
 11
214.6889953613280966
 21
11.1957092285156197
 31
0.0
  0
LINE
  5
1AF
100
AcDbEntity
100
AcDbLine
  8
CADDY_2
 62
8
370
-1
  6
CONTINUOUS
 10
217.205078125
 20
11.1957092285156197
 30
0.0
 11
217.2790832519530966
 21
11.1957092285156197
 31
0.0
  0
LINE
  5
1B0
100
AcDbEntity
100
AcDbLine
  8
CADDY_2
 62
8
370
-1
  6
CONTINUOUS
 10
218.3151397705078125
 20
11.1957092285156197
 30
0.0
 11
218.3151397705078125
 21
11.1957092285156197
 31
0.0
  0
LINE
  5
1B1
100
AcDbEntity
100
AcDbLine
  8
CADDY_2
 62
8
370
-1
  6
CONTINUOUS
 10
218.8331604003905966
 20
11.1957092285156197
 30
0.0
 11
218.9071350097655966
 21
11.1957092285156197
 31
0.0
  0
LINE
  5
1B2
100
AcDbEntity
100
AcDbLine
  8
CADDY_2
 62
8
370
-1
  6
CONTINUOUS
 10
220.4612121582030966
 20
11.1957092285156197
 30
0.0
 11
220.6091918945311932
 21
11.1957092285156197
 31
0.0
  0
LINE
  5
1B3
100
AcDbEntity
100
AcDbLine
  8
CADDY_2
 62
8
370
-1
  6
CONTINUOUS
 10
221.2012329101561932
 20
11.1957092285156197
 30
0.0
 11
221.2752380371094034
 21
11.1957092285156197
 31
0.0
  0
LINE
  5
1B4
100
AcDbEntity
100
AcDbLine
  8
CADDY_2
 62
8
370
-1
  6
CONTINUOUS
 10
205.8827056884765909
 20
11.2955322265625
 30
0.0
 11
206.0307312011719034
 21
11.2955322265625
 31
0.0
  0
LINE
  5
1B5
100
AcDbEntity
100
AcDbLine
  8
CADDY_2
 62
8
370
-1
  6
CONTINUOUS
 10
207.1407775878905966
 20
11.2955322265625
 30
0.0
 11
207.8067779541015909
 21
11.2955322265625
 31
0.0
  0
LINE
  5
1B6
100
AcDbEntity
100
AcDbLine
  8
CADDY_2
 62
8
370
-1
  6
CONTINUOUS
 10
209.0648345947265909
 20
11.2955322265625
 30
0.0
 11
209.5088348388671875
 21
11.2955322265625
 31
0.0
  0
LINE
  5
1B7
100
AcDbEntity
100
AcDbLine
  8
CADDY_2
 62
8
370
-1
  6
CONTINUOUS
 10
210.2488708496094034
 20
11.2955322265625
 30
0.0
 11
210.4708862304688068
 21
11.2955322265625
 31
0.0
  0
LINE
  5
1B8
100
AcDbEntity
100
AcDbLine
  8
CADDY_2
 62
8
370
-1
  6
CONTINUOUS
 10
210.7669067382811932
 20
11.2955322265625
 30
0.0
 11
210.8408813476561932
 21
11.2955322265625
 31
0.0
  0
LINE
  5
1B9
100
AcDbEntity
100
AcDbLine
  8
CADDY_2
 62
8
370
-1
  6
CONTINUOUS
 10
211.7288818359375
 20
11.2955322265625
 30
0.0
 11
211.8028869628905966
 21
11.2955322265625
 31
0.0
  0
LINE
  5
1BA
100
AcDbEntity
100
AcDbLine
  8
CADDY_2
 62
8
370
-1
  6
CONTINUOUS
 10
213.4309387207030966
 20
11.2955322265625
 30
0.0
 11
213.5789642333984091
 21
11.2955322265625
 31
0.0
  0
LINE
  5
1BB
100
AcDbEntity
100
AcDbLine
  8
CADDY_2
 62
8
370
-1
  6
CONTINUOUS
 10
214.6150054931640909
 20
11.2955322265625
 30
0.0
 11
214.6889953613280966
 21
11.2955322265625
 31
0.0
  0
LINE
  5
1BC
100
AcDbEntity
100
AcDbLine
  8
CADDY_2
 62
8
370
-1
  6
CONTINUOUS
 10
217.205078125
 20
11.2955322265625
 30
0.0
 11
217.2790832519530966
 21
11.2955322265625
 31
0.0
  0
LINE
  5
1BD
100
AcDbEntity
100
AcDbLine
  8
CADDY_2
 62
8
370
-1
  6
CONTINUOUS
 10
218.8331604003905966
 20
11.2955322265625
 30
0.0
 11
218.9071350097655966
 21
11.2955322265625
 31
0.0
  0
LINE
  5
1BE
100
AcDbEntity
100
AcDbLine
  8
CADDY_2
 62
8
370
-1
  6
CONTINUOUS
 10
220.5352172851561932
 20
11.2955322265625
 30
0.0
 11
220.6091918945311932
 21
11.2955322265625
 31
0.0
  0
LINE
  5
1BF
100
AcDbEntity
100
AcDbLine
  8
CADDY_2
 62
8
370
-1
  6
CONTINUOUS
 10
221.1272277832030966
 20
11.2955322265625
 30
0.0
 11
221.2012329101561932
 21
11.2955322265625
 31
0.0
  0
LINE
  5
1C0
100
AcDbEntity
100
AcDbLine
  8
CADDY_2
 62
8
370
-1
  6
CONTINUOUS
 10
205.8086853027344034
 20
11.3953552246093803
 30
0.0
 11
205.9567108154296875
 21
11.3953552246093803
 31
0.0
  0
LINE
  5
1C1
100
AcDbEntity
100
AcDbLine
  8
CADDY_2
 62
8
370
-1
  6
CONTINUOUS
 10
207.0667572021484091
 20
11.3953552246093803
 30
0.0
 11
207.7327880859375
 21
11.3953552246093803
 31
0.0
  0
LINE
  5
1C2
100
AcDbEntity
100
AcDbLine
  8
CADDY_2
 62
8
370
-1
  6
CONTINUOUS
 10
209.2128295898438068
 20
11.3953552246093803
 30
0.0
 11
210.2488708496094034
 21
11.3953552246093803
 31
0.0
  0
LINE
  5
1C3
100
AcDbEntity
100
AcDbLine
  8
CADDY_2
 62
8
370
-1
  6
CONTINUOUS
 10
210.7669067382811932
 20
11.3953552246093803
 30
0.0
 11
210.8408813476561932
 21
11.3953552246093803
 31
0.0
  0
LINE
  5
1C4
100
AcDbEntity
100
AcDbLine
  8
CADDY_2
 62
8
370
-1
  6
CONTINUOUS
 10
211.7288818359375
 20
11.3953552246093803
 30
0.0
 11
211.8028869628905966
 21
11.3953552246093803
 31
0.0
  0
LINE
  5
1C5
100
AcDbEntity
100
AcDbLine
  8
CADDY_2
 62
8
370
-1
  6
CONTINUOUS
 10
213.4309387207030966
 20
11.3953552246093803
 30
0.0
 11
213.5789642333984091
 21
11.3953552246093803
 31
0.0
  0
LINE
  5
1C6
100
AcDbEntity
100
AcDbLine
  8
CADDY_2
 62
8
370
-1
  6
CONTINUOUS
 10
214.6150054931640909
 20
11.3953552246093803
 30
0.0
 11
214.6889953613280966
 21
11.3953552246093803
 31
0.0
  0
LINE
  5
1C7
100
AcDbEntity
100
AcDbLine
  8
CADDY_2
 62
8
370
-1
  6
CONTINUOUS
 10
217.205078125
 20
11.3953552246093803
 30
0.0
 11
217.2790832519530966
 21
11.3953552246093803
 31
0.0
  0
LINE
  5
1C8
100
AcDbEntity
100
AcDbLine
  8
CADDY_2
 62
8
370
-1
  6
CONTINUOUS
 10
218.3151397705078125
 20
11.3953552246093803
 30
0.0
 11
218.3151397705078125
 21
11.3953552246093803
 31
0.0
  0
LINE
  5
1C9
100
AcDbEntity
100
AcDbLine
  8
CADDY_2
 62
8
370
-1
  6
CONTINUOUS
 10
218.8331604003905966
 20
11.3953552246093803
 30
0.0
 11
218.9071350097655966
 21
11.3953552246093803
 31
0.0
  0
LINE
  5
1CA
100
AcDbEntity
100
AcDbLine
  8
CADDY_2
 62
8
370
-1
  6
CONTINUOUS
 10
221.0532379150390909
 20
11.3953552246093803
 30
0.0
 11
221.1272277832030966
 21
11.3953552246093803
 31
0.0
  0
LINE
  5
1CB
100
AcDbEntity
100
AcDbLine
  8
CADDY_2
 62
8
370
-1
  6
CONTINUOUS
 10
205.7347259521484091
 20
11.4951934814453107
 30
0.0
 11
205.8827056884765909
 21
11.4951934814453107
 31
0.0
  0
LINE
  5
1CC
100
AcDbEntity
100
AcDbLine
  8
CADDY_2
 62
8
370
-1
  6
CONTINUOUS
 10
207.0667572021484091
 20
11.4951934814453107
 30
0.0
 11
207.7327880859375
 21
11.4951934814453107
 31
0.0
  0
LINE
  5
1CD
100
AcDbEntity
100
AcDbLine
  8
CADDY_2
 62
8
370
-1
  6
CONTINUOUS
 10
209.3608551025390909
 20
11.4951934814453107
 30
0.0
 11
210.02685546875
 21
11.4951934814453107
 31
0.0
  0
LINE
  5
1CE
100
AcDbEntity
100
AcDbLine
  8
CADDY_2
 62
8
370
-1
  6
CONTINUOUS
 10
210.7669067382811932
 20
11.4951934814453107
 30
0.0
 11
210.8408813476561932
 21
11.4951934814453107
 31
0.0
  0
LINE
  5
1CF
100
AcDbEntity
100
AcDbLine
  8
CADDY_2
 62
8
370
-1
  6
CONTINUOUS
 10
211.7288818359375
 20
11.4951934814453107
 30
0.0
 11
211.8028869628905966
 21
11.4951934814453107
 31
0.0
  0
LINE
  5
1D0
100
AcDbEntity
100
AcDbLine
  8
CADDY_2
 62
8
370
-1
  6
CONTINUOUS
 10
213.4309387207030966
 20
11.4951934814453107
 30
0.0
 11
213.5789642333984091
 21
11.4951934814453107
 31
0.0
  0
LINE
  5
1D1
100
AcDbEntity
100
AcDbLine
  8
CADDY_2
 62
8
370
-1
  6
CONTINUOUS
 10
214.6150054931640909
 20
11.4951934814453107
 30
0.0
 11
216.2430419921875
 21
11.4951934814453107
 31
0.0
  0
LINE
  5
1D2
100
AcDbEntity
100
AcDbLine
  8
CADDY_2
 62
8
370
-1
  6
CONTINUOUS
 10
217.205078125
 20
11.4951934814453107
 30
0.0
 11
218.2411346435546875
 21
11.4951934814453107
 31
0.0
  0
LINE
  5
1D3
100
AcDbEntity
100
AcDbLine
  8
CADDY_2
 62
8
370
-1
  6
CONTINUOUS
 10
218.8331604003905966
 20
11.4951934814453107
 30
0.0
 11
218.9071350097655966
 21
11.4951934814453107
 31
0.0
  0
LINE
  5
1D4
100
AcDbEntity
100
AcDbLine
  8
CADDY_2
 62
8
370
-1
  6
CONTINUOUS
 10
220.9792175292969034
 20
11.4951934814453107
 30
0.0
 11
221.1272277832030966
 21
11.4951934814453107
 31
0.0
  0
LINE
  5
1D5
100
AcDbEntity
100
AcDbLine
  8
CADDY_2
 62
8
370
-1
  6
CONTINUOUS
 10
205.6607055664061932
 20
11.5950164794921893
 30
0.0
 11
205.8086853027344034
 21
11.5950164794921893
 31
0.0
  0
LINE
  5
1D6
100
AcDbEntity
100
AcDbLine
  8
CADDY_2
 62
8
370
-1
  6
CONTINUOUS
 10
207.0667572021484091
 20
11.5950164794921893
 30
0.0
 11
207.6587829589844034
 21
11.5950164794921893
 31
0.0
  0
LINE
  5
1D7
100
AcDbEntity
100
AcDbLine
  8
CADDY_2
 62
8
370
-1
  6
CONTINUOUS
 10
210.7669067382811932
 20
11.5950164794921893
 30
0.0
 11
210.8408813476561932
 21
11.5950164794921893
 31
0.0
  0
LINE
  5
1D8
100
AcDbEntity
100
AcDbLine
  8
CADDY_2
 62
8
370
-1
  6
CONTINUOUS
 10
211.7288818359375
 20
11.5950164794921893
 30
0.0
 11
211.8028869628905966
 21
11.5950164794921893
 31
0.0
  0
LINE
  5
1D9
100
AcDbEntity
100
AcDbLine
  8
CADDY_2
 62
8
370
-1
  6
CONTINUOUS
 10
213.5049591064453125
 20
11.5950164794921893
 30
0.0
 11
213.5789642333984091
 21
11.5950164794921893
 31
0.0
  0
LINE
  5
1DA
100
AcDbEntity
100
AcDbLine
  8
CADDY_2
 62
8
370
-1
  6
CONTINUOUS
 10
214.6150054931640909
 20
11.5950164794921893
 30
0.0
 11
214.6889953613280966
 21
11.5950164794921893
 31
0.0
  0
LINE
  5
1DB
100
AcDbEntity
100
AcDbLine
  8
CADDY_2
 62
8
370
-1
  6
CONTINUOUS
 10
214.8369903564453125
 20
11.5950164794921893
 30
0.0
 11
214.9110107421875
 21
11.5950164794921893
 31
0.0
  0
LINE
  5
1DC
100
AcDbEntity
100
AcDbLine
  8
CADDY_2
 62
8
370
-1
  6
CONTINUOUS
 10
215.0590057373046875
 20
11.5950164794921893
 30
0.0
 11
216.2430419921875
 21
11.5950164794921893
 31
0.0
  0
LINE
  5
1DD
100
AcDbEntity
100
AcDbLine
  8
CADDY_2
 62
8
370
-1
  6
CONTINUOUS
 10
217.205078125
 20
11.5950164794921893
 30
0.0
 11
218.0191192626953125
 21
11.5950164794921893
 31
0.0
  0
LINE
  5
1DE
100
AcDbEntity
100
AcDbLine
  8
CADDY_2
 62
8
370
-1
  6
CONTINUOUS
 10
218.1671142578125
 20
11.5950164794921893
 30
0.0
 11
218.1671142578125
 21
11.5950164794921893
 31
0.0
  0
LINE
  5
1DF
100
AcDbEntity
100
AcDbLine
  8
CADDY_2
 62
8
370
-1
  6
CONTINUOUS
 10
218.7591400146484091
 20
11.5950164794921893
 30
0.0
 11
218.8331604003905966
 21
11.5950164794921893
 31
0.0
  0
LINE
  5
1E0
100
AcDbEntity
100
AcDbLine
  8
CADDY_2
 62
8
370
-1
  6
CONTINUOUS
 10
221.0532379150390909
 20
11.5950164794921893
 30
0.0
 11
221.1272277832030966
 21
11.5950164794921893
 31
0.0
  0
LINE
  5
1E1
100
AcDbEntity
100
AcDbLine
  8
CADDY_2
 62
8
370
-1
  6
CONTINUOUS
 10
205.5867004394530966
 20
11.6948547363281197
 30
0.0
 11
205.6607055664061932
 21
11.6948547363281197
 31
0.0
  0
LINE
  5
1E2
100
AcDbEntity
100
AcDbLine
  8
CADDY_2
 62
8
370
-1
  6
CONTINUOUS
 10
206.9927520751953125
 20
11.6948547363281197
 30
0.0
 11
207.6587829589844034
 21
11.6948547363281197
 31
0.0
  0
LINE
  5
1E3
100
AcDbEntity
100
AcDbLine
  8
CADDY_2
 62
8
370
-1
  6
CONTINUOUS
 10
211.7288818359375
 20
11.6948547363281197
 30
0.0
 11
211.8028869628905966
 21
11.6948547363281197
 31
0.0
  0
LINE
  5
1E4
100
AcDbEntity
100
AcDbLine
  8
CADDY_2
 62
8
370
-1
  6
CONTINUOUS
 10
213.4309387207030966
 20
11.6948547363281197
 30
0.0
 11
213.5789642333984091
 21
11.6948547363281197
 31
0.0
  0
LINE
  5
1E5
100
AcDbEntity
100
AcDbLine
  8
CADDY_2
 62
8
370
-1
  6
CONTINUOUS
 10
216.0950469970703125
 20
11.6948547363281197
 30
0.0
 11
216.2430419921875
 21
11.6948547363281197
 31
0.0
  0
LINE
  5
1E6
100
AcDbEntity
100
AcDbLine
  8
CADDY_2
 62
8
370
-1
  6
CONTINUOUS
 10
220.9792175292969034
 20
11.6948547363281197
 30
0.0
 11
221.0532379150390909
 21
11.6948547363281197
 31
0.0
  0
LINE
  5
1E7
100
AcDbEntity
100
AcDbLine
  8
CADDY_2
 62
8
370
-1
  6
CONTINUOUS
 10
205.4387054443359091
 20
11.794677734375
 30
0.0
 11
205.5867004394530966
 21
11.794677734375
 31
0.0
  0
LINE
  5
1E8
100
AcDbEntity
100
AcDbLine
  8
CADDY_2
 62
8
370
-1
  6
CONTINUOUS
 10
206.9187469482421875
 20
11.794677734375
 30
0.0
 11
207.5847625732421875
 21
11.794677734375
 31
0.0
  0
LINE
  5
1E9
100
AcDbEntity
100
AcDbLine
  8
CADDY_2
 62
8
370
-1
  6
CONTINUOUS
 10
211.7288818359375
 20
11.794677734375
 30
0.0
 11
211.8028869628905966
 21
11.794677734375
 31
0.0
  0
LINE
  5
1EA
100
AcDbEntity
100
AcDbLine
  8
CADDY_2
 62
8
370
-1
  6
CONTINUOUS
 10
213.4309387207030966
 20
11.794677734375
 30
0.0
 11
213.5789642333984091
 21
11.794677734375
 31
0.0
  0
LINE
  5
1EB
100
AcDbEntity
100
AcDbLine
  8
CADDY_2
 62
8
370
-1
  6
CONTINUOUS
 10
216.0950469970703125
 20
11.794677734375
 30
0.0
 11
216.2430419921875
 21
11.794677734375
 31
0.0
  0
LINE
  5
1EC
100
AcDbEntity
100
AcDbLine
  8
CADDY_2
 62
8
370
-1
  6
CONTINUOUS
 10
220.9792175292969034
 20
11.794677734375
 30
0.0
 11
220.9792175292969034
 21
11.794677734375
 31
0.0
  0
LINE
  5
1ED
100
AcDbEntity
100
AcDbLine
  8
CADDY_2
 62
8
370
-1
  6
CONTINUOUS
 10
205.2166900634765909
 20
11.8945159912109393
 30
0.0
 11
205.3646850585938068
 21
11.8945159912109393
 31
0.0
  0
LINE
  5
1EE
100
AcDbEntity
100
AcDbLine
  8
CADDY_2
 62
8
370
-1
  6
CONTINUOUS
 10
206.8447570800780966
 20
11.8945159912109393
 30
0.0
 11
207.5107574462890909
 21
11.8945159912109393
 31
0.0
  0
LINE
  5
1EF
100
AcDbEntity
100
AcDbLine
  8
CADDY_2
 62
8
370
-1
  6
CONTINUOUS
 10
211.7288818359375
 20
11.8945159912109393
 30
0.0
 11
211.7288818359375
 21
11.8945159912109393
 31
0.0
  0
LINE
  5
1F0
100
AcDbEntity
100
AcDbLine
  8
CADDY_2
 62
8
370
-1
  6
CONTINUOUS
 10
213.4309387207030966
 20
11.8945159912109393
 30
0.0
 11
213.5049591064453125
 21
11.8945159912109393
 31
0.0
  0
LINE
  5
1F1
100
AcDbEntity
100
AcDbLine
  8
CADDY_2
 62
8
370
-1
  6
CONTINUOUS
 10
216.0950469970703125
 20
11.8945159912109393
 30
0.0
 11
216.0950469970703125
 21
11.8945159912109393
 31
0.0
  0
LINE
  5
1F2
100
AcDbEntity
100
AcDbLine
  8
CADDY_2
 62
8
370
-1
  6
CONTINUOUS
 10
220.9052124023438068
 20
11.8945159912109393
 30
0.0
 11
220.9052124023438068
 21
11.8945159912109393
 31
0.0
  0
LINE
  5
1F3
100
AcDbEntity
100
AcDbLine
  8
CADDY_2
 62
8
370
-1
  6
CONTINUOUS
 10
205.0686645507811932
 20
11.9943389892578107
 30
0.0
 11
205.2906799316405966
 21
11.9943389892578107
 31
0.0
  0
LINE
  5
1F4
100
AcDbEntity
100
AcDbLine
  8
CADDY_2
 62
8
370
-1
  6
CONTINUOUS
 10
206.8447570800780966
 20
11.9943389892578107
 30
0.0
 11
207.5107574462890909
 21
11.9943389892578107
 31
0.0
  0
LINE
  5
1F5
100
AcDbEntity
100
AcDbLine
  8
CADDY_2
 62
8
370
-1
  6
CONTINUOUS
 10
204.6986541748046875
 20
12.09417724609375
 30
0.0
 11
204.9946746826171875
 21
12.09417724609375
 31
0.0
  0
LINE
  5
1F6
100
AcDbEntity
100
AcDbLine
  8
CADDY_2
 62
8
370
-1
  6
CONTINUOUS
 10
206.6967315673828125
 20
12.09417724609375
 30
0.0
 11
207.436767578125
 21
12.09417724609375
 31
0.0
  0
LINE
  5
1F7
100
AcDbEntity
100
AcDbLine
  8
CADDY_2
 62
8
370
-1
  6
CONTINUOUS
 10
204.4026641845703125
 20
12.1940002441406197
 30
0.0
 11
204.7726745605469034
 21
12.1940002441406197
 31
0.0
  0
LINE
  5
1F8
100
AcDbEntity
100
AcDbLine
  8
CADDY_2
 62
8
370
-1
  6
CONTINUOUS
 10
206.6967315673828125
 20
12.1940002441406197
 30
0.0
 11
207.436767578125
 21
12.1940002441406197
 31
0.0
  0
LINE
  5
1F9
100
AcDbEntity
100
AcDbLine
  8
CADDY_2
 62
8
370
-1
  6
CONTINUOUS
 10
203.3666229248046875
 20
12.2938232421875
 30
0.0
 11
204.1806488037109091
 21
12.2938232421875
 31
0.0
  0
LINE
  5
1FA
100
AcDbEntity
100
AcDbLine
  8
CADDY_2
 62
8
370
-1
  6
CONTINUOUS
 10
206.5487365722655966
 20
12.2938232421875
 30
0.0
 11
207.2887420654296875
 21
12.2938232421875
 31
0.0
  0
LINE
  5
1FB
100
AcDbEntity
100
AcDbLine
  8
CADDY_2
 62
8
370
-1
  6
CONTINUOUS
 10
202.6266021728515909
 20
12.3936614990234393
 30
0.0
 11
203.4406280517578125
 21
12.3936614990234393
 31
0.0
  0
LINE
  5
1FC
100
AcDbEntity
100
AcDbLine
  8
CADDY_2
 62
8
370
-1
  6
CONTINUOUS
 10
206.5487365722655966
 20
12.3936614990234393
 30
0.0
 11
207.2147521972655966
 21
12.3936614990234393
 31
0.0
  0
LINE
  5
1FD
100
AcDbEntity
100
AcDbLine
  8
CADDY_2
 62
8
370
-1
  6
CONTINUOUS
 10
201.3685302734375
 20
12.4934844970703107
 30
0.0
 11
202.1825714111328125
 21
12.4934844970703107
 31
0.0
  0
LINE
  5
1FE
100
AcDbEntity
100
AcDbLine
  8
CADDY_2
 62
8
370
-1
  6
CONTINUOUS
 10
206.3267364501953125
 20
12.4934844970703107
 30
0.0
 11
207.0667572021484091
 21
12.4934844970703107
 31
0.0
  0
LINE
  5
1FF
100
AcDbEntity
100
AcDbLine
  8
CADDY_2
 62
8
370
-1
  6
CONTINUOUS
 10
200.9985504150390909
 20
12.59332275390625
 30
0.0
 11
201.3685302734375
 21
12.59332275390625
 31
0.0
  0
LINE
  5
200
100
AcDbEntity
100
AcDbLine
  8
CADDY_2
 62
8
370
-1
  6
CONTINUOUS
 10
206.3267364501953125
 20
12.59332275390625
 30
0.0
 11
206.9927520751953125
 21
12.59332275390625
 31
0.0
  0
LINE
  5
201
100
AcDbEntity
100
AcDbLine
  8
CADDY_2
 62
8
370
-1
  6
CONTINUOUS
 10
200.7025299072265909
 20
12.6931457519531197
 30
0.0
 11
200.8505249023438068
 21
12.6931457519531197
 31
0.0
  0
LINE
  5
202
100
AcDbEntity
100
AcDbLine
  8
CADDY_2
 62
8
370
-1
  6
CONTINUOUS
 10
206.1787109375
 20
12.6931457519531197
 30
0.0
 11
206.7707366943359091
 21
12.6931457519531197
 31
0.0
  0
LINE
  5
203
100
AcDbEntity
100
AcDbLine
  8
CADDY_2
 62
8
370
-1
  6
CONTINUOUS
 10
200.4805297851561932
 20
12.79296875
 30
0.0
 11
200.5545196533203125
 21
12.79296875
 31
0.0
  0
LINE
  5
204
100
AcDbEntity
100
AcDbLine
  8
CADDY_2
 62
8
370
-1
  6
CONTINUOUS
 10
205.8827056884765909
 20
12.79296875
 30
0.0
 11
206.6227416992188068
 21
12.79296875
 31
0.0
  0
LINE
  5
205
100
AcDbEntity
100
AcDbLine
  8
CADDY_2
 62
8
370
-1
  6
CONTINUOUS
 10
200.4065246582030966
 20
12.8927917480468803
 30
0.0
 11
200.4805297851561932
 21
12.8927917480468803
 31
0.0
  0
LINE
  5
206
100
AcDbEntity
100
AcDbLine
  8
CADDY_2
 62
8
370
-1
  6
CONTINUOUS
 10
205.8086853027344034
 20
12.8927917480468803
 30
0.0
 11
206.4747314453125
 21
12.8927917480468803
 31
0.0
  0
LINE
  5
207
100
AcDbEntity
100
AcDbLine
  8
CADDY_2
 62
8
370
-1
  6
CONTINUOUS
 10
200.2584991455078125
 20
12.9926300048828107
 30
0.0
 11
200.2584991455078125
 21
12.9926300048828107
 31
0.0
  0
LINE
  5
208
100
AcDbEntity
100
AcDbLine
  8
CADDY_2
 62
8
370
-1
  6
CONTINUOUS
 10
205.5867004394530966
 20
12.9926300048828107
 30
0.0
 11
206.1787109375
 21
12.9926300048828107
 31
0.0
  0
LINE
  5
209
100
AcDbEntity
100
AcDbLine
  8
CADDY_2
 62
8
370
-1
  6
CONTINUOUS
 10
200.1845245361328125
 20
13.0924530029296893
 30
0.0
 11
200.2584991455078125
 21
13.0924530029296893
 31
0.0
  0
LINE
  5
20A
100
AcDbEntity
100
AcDbLine
  8
CADDY_2
 62
8
370
-1
  6
CONTINUOUS
 10
205.3646850585938068
 20
13.0924530029296893
 30
0.0
 11
205.9567108154296875
 21
13.0924530029296893
 31
0.0
  0
LINE
  5
20B
100
AcDbEntity
100
AcDbLine
  8
CADDY_2
 62
8
370
-1
  6
CONTINUOUS
 10
200.0364990234375
 20
13.1922760009765607
 30
0.0
 11
200.1105041503905966
 21
13.1922760009765607
 31
0.0
  0
LINE
  5
20C
100
AcDbEntity
100
AcDbLine
  8
CADDY_2
 62
8
370
-1
  6
CONTINUOUS
 10
205.0686645507811932
 20
13.1922760009765607
 30
0.0
 11
205.5867004394530966
 21
13.1922760009765607
 31
0.0
  0
LINE
  5
20D
100
AcDbEntity
100
AcDbLine
  8
CADDY_2
 62
8
370
-1
  6
CONTINUOUS
 10
199.9624786376953125
 20
13.2921142578125
 30
0.0
 11
200.0364990234375
 21
13.2921142578125
 31
0.0
  0
LINE
  5
20E
100
AcDbEntity
100
AcDbLine
  8
CADDY_2
 62
8
370
-1
  6
CONTINUOUS
 10
204.6986541748046875
 20
13.2921142578125
 30
0.0
 11
205.2906799316405966
 21
13.2921142578125
 31
0.0
  0
LINE
  5
20F
100
AcDbEntity
100
AcDbLine
  8
CADDY_2
 62
8
370
-1
  6
CONTINUOUS
 10
199.8885040283203125
 20
13.3919372558593803
 30
0.0
 11
199.8885040283203125
 21
13.3919372558593803
 31
0.0
  0
LINE
  5
210
100
AcDbEntity
100
AcDbLine
  8
CADDY_2
 62
8
370
-1
  6
CONTINUOUS
 10
203.6626281738280966
 20
13.3919372558593803
 30
0.0
 11
204.4766540527344034
 21
13.3919372558593803
 31
0.0
  0
LINE
  5
211
100
AcDbEntity
100
AcDbLine
  8
CADDY_2
 62
8
370
-1
  6
CONTINUOUS
 10
199.8144989013671875
 20
13.4917755126953107
 30
0.0
 11
199.8885040283203125
 21
13.4917755126953107
 31
0.0
  0
LINE
  5
212
100
AcDbEntity
100
AcDbLine
  8
CADDY_2
 62
8
370
-1
  6
CONTINUOUS
 10
202.6266021728515909
 20
13.4917755126953107
 30
0.0
 11
203.4406280517578125
 21
13.4917755126953107
 31
0.0
  0
LINE
  5
213
100
AcDbEntity
100
AcDbLine
  8
CADDY_2
 62
8
370
-1
  6
CONTINUOUS
 10
199.8144989013671875
 20
13.5915985107421893
 30
0.0
 11
199.8144989013671875
 21
13.5915985107421893
 31
0.0
  0
LINE
  5
214
100
AcDbEntity
100
AcDbLine
  8
CADDY_2
 62
8
370
-1
  6
CONTINUOUS
 10
201.9605712890625
 20
13.5915985107421893
 30
0.0
 11
202.7745971679688068
 21
13.5915985107421893
 31
0.0
  0
LINE
  5
215
100
AcDbEntity
100
AcDbLine
  8
CADDY_2
 62
8
370
-1
  6
CONTINUOUS
 10
199.66650390625
 20
13.6914367675781197
 30
0.0
 11
199.7404937744140909
 21
13.6914367675781197
 31
0.0
  0
LINE
  5
216
100
AcDbEntity
100
AcDbLine
  8
CADDY_2
 62
8
370
-1
  6
CONTINUOUS
 10
201.3685302734375
 20
13.6914367675781197
 30
0.0
 11
202.1085815429688068
 21
13.6914367675781197
 31
0.0
  0
LINE
  5
217
100
AcDbEntity
100
AcDbLine
  8
CADDY_2
 62
8
370
-1
  6
CONTINUOUS
 10
199.66650390625
 20
13.791259765625
 30
0.0
 11
199.7404937744140909
 21
13.791259765625
 31
0.0
  0
LINE
  5
218
100
AcDbEntity
100
AcDbLine
  8
CADDY_2
 62
8
370
-1
  6
CONTINUOUS
 10
201.1465454101561932
 20
13.791259765625
 30
0.0
 11
201.8865814208984091
 21
13.791259765625
 31
0.0
  0
LINE
  5
219
100
AcDbEntity
100
AcDbLine
  8
CADDY_2
 62
8
370
-1
  6
CONTINUOUS
 10
199.66650390625
 20
13.8910980224609393
 30
0.0
 11
199.66650390625
 21
13.8910980224609393
 31
0.0
  0
LINE
  5
21A
100
AcDbEntity
100
AcDbLine
  8
CADDY_2
 62
8
370
-1
  6
CONTINUOUS
 10
200.9985504150390909
 20
13.8910980224609393
 30
0.0
 11
201.7385559082030966
 21
13.8910980224609393
 31
0.0
  0
LINE
  5
21B
100
AcDbEntity
100
AcDbLine
  8
CADDY_2
 62
8
370
-1
  6
CONTINUOUS
 10
199.5924987792969034
 20
13.9909210205078107
 30
0.0
 11
199.5924987792969034
 21
13.9909210205078107
 31
0.0
  0
LINE
  5
21C
100
AcDbEntity
100
AcDbLine
  8
CADDY_2
 62
8
370
-1
  6
CONTINUOUS
 10
200.8505249023438068
 20
13.9909210205078107
 30
0.0
 11
201.5905609130859091
 21
13.9909210205078107
 31
0.0
  0
LINE
  5
21D
100
AcDbEntity
100
AcDbLine
  8
CADDY_2
 62
8
370
-1
  6
CONTINUOUS
 10
199.5924987792969034
 20
14.0907440185546893
 30
0.0
 11
199.5924987792969034
 21
14.0907440185546893
 31
0.0
  0
LINE
  5
21E
100
AcDbEntity
100
AcDbLine
  8
CADDY_2
 62
8
370
-1
  6
CONTINUOUS
 10
200.7765350341796875
 20
14.0907440185546893
 30
0.0
 11
201.4425354003905966
 21
14.0907440185546893
 31
0.0
  0
LINE
  5
21F
100
AcDbEntity
100
AcDbLine
  8
CADDY_2
 62
8
370
-1
  6
CONTINUOUS
 10
199.5924987792969034
 20
14.1905822753906197
 30
0.0
 11
199.5924987792969034
 21
14.1905822753906197
 31
0.0
  0
LINE
  5
220
100
AcDbEntity
100
AcDbLine
  8
CADDY_2
 62
8
370
-1
  6
CONTINUOUS
 10
200.6285095214844034
 20
14.1905822753906197
 30
0.0
 11
201.3685302734375
 21
14.1905822753906197
 31
0.0
  0
LINE
  5
221
100
AcDbEntity
100
AcDbLine
  8
CADDY_2
 62
8
370
-1
  6
CONTINUOUS
 10
199.5924987792969034
 20
14.2904052734375
 30
0.0
 11
199.5924987792969034
 21
14.2904052734375
 31
0.0
  0
LINE
  5
222
100
AcDbEntity
100
AcDbLine
  8
CADDY_2
 62
8
370
-1
  6
CONTINUOUS
 10
200.6285095214844034
 20
14.2904052734375
 30
0.0
 11
201.3685302734375
 21
14.2904052734375
 31
0.0
  0
LINE
  5
223
100
AcDbEntity
100
AcDbLine
  8
CADDY_2
 62
8
370
-1
  6
CONTINUOUS
 10
199.5184783935546875
 20
14.3902282714843803
 30
0.0
 11
199.5184783935546875
 21
14.3902282714843803
 31
0.0
  0
LINE
  5
224
100
AcDbEntity
100
AcDbLine
  8
CADDY_2
 62
8
370
-1
  6
CONTINUOUS
 10
200.5545196533203125
 20
14.3902282714843803
 30
0.0
 11
201.2945709228515909
 21
14.3902282714843803
 31
0.0
  0
LINE
  5
225
100
AcDbEntity
100
AcDbLine
  8
CADDY_2
 62
8
370
-1
  6
CONTINUOUS
 10
199.5184783935546875
 20
14.4900665283203107
 30
0.0
 11
199.5184783935546875
 21
14.4900665283203107
 31
0.0
  0
LINE
  5
226
100
AcDbEntity
100
AcDbLine
  8
CADDY_2
 62
8
370
-1
  6
CONTINUOUS
 10
200.4805297851561932
 20
14.4900665283203107
 30
0.0
 11
201.2945709228515909
 21
14.4900665283203107
 31
0.0
  0
LINE
  5
227
100
AcDbEntity
100
AcDbLine
  8
CADDY_2
 62
8
370
-1
  6
CONTINUOUS
 10
199.5184783935546875
 20
14.5898895263671893
 30
0.0
 11
199.5184783935546875
 21
14.5898895263671893
 31
0.0
  0
LINE
  5
228
100
AcDbEntity
100
AcDbLine
  8
CADDY_2
 62
8
370
-1
  6
CONTINUOUS
 10
200.4805297851561932
 20
14.5898895263671893
 30
0.0
 11
201.2205505371094034
 21
14.5898895263671893
 31
0.0
  0
LINE
  5
229
100
AcDbEntity
100
AcDbLine
  8
CADDY_2
 62
8
370
-1
  6
CONTINUOUS
 10
199.5184783935546875
 20
14.6897277832031197
 30
0.0
 11
199.5184783935546875
 21
14.6897277832031197
 31
0.0
  0
LINE
  5
22A
100
AcDbEntity
100
AcDbLine
  8
CADDY_2
 62
8
370
-1
  6
CONTINUOUS
 10
200.4805297851561932
 20
14.6897277832031197
 30
0.0
 11
201.2205505371094034
 21
14.6897277832031197
 31
0.0
  0
LINE
  5
22B
100
AcDbEntity
100
AcDbLine
  8
CADDY_2
 62
8
370
-1
  6
CONTINUOUS
 10
199.5184783935546875
 20
14.78955078125
 30
0.0
 11
199.5184783935546875
 21
14.78955078125
 31
0.0
  0
LINE
  5
22C
100
AcDbEntity
100
AcDbLine
  8
CADDY_2
 62
8
370
-1
  6
CONTINUOUS
 10
200.4805297851561932
 20
14.78955078125
 30
0.0
 11
201.2205505371094034
 21
14.78955078125
 31
0.0
  0
LINE
  5
22D
100
AcDbEntity
100
AcDbLine
  8
CADDY_2
 62
8
370
-1
  6
CONTINUOUS
 10
199.5184783935546875
 20
14.8893737792968803
 30
0.0
 11
199.5184783935546875
 21
14.8893737792968803
 31
0.0
  0
LINE
  5
22E
100
AcDbEntity
100
AcDbLine
  8
CADDY_2
 62
8
370
-1
  6
CONTINUOUS
 10
200.4805297851561932
 20
14.8893737792968803
 30
0.0
 11
201.2205505371094034
 21
14.8893737792968803
 31
0.0
  0
LINE
  5
22F
100
AcDbEntity
100
AcDbLine
  8
CADDY_2
 62
8
370
-1
  6
CONTINUOUS
 10
199.5184783935546875
 20
14.98919677734375
 30
0.0
 11
199.5184783935546875
 21
14.98919677734375
 31
0.0
  0
LINE
  5
230
100
AcDbEntity
100
AcDbLine
  8
CADDY_2
 62
8
370
-1
  6
CONTINUOUS
 10
200.4805297851561932
 20
14.98919677734375
 30
0.0
 11
201.2945709228515909
 21
14.98919677734375
 31
0.0
  0
LINE
  5
231
100
AcDbEntity
100
AcDbLine
  8
CADDY_2
 62
8
370
-1
  6
CONTINUOUS
 10
199.5184783935546875
 20
15.0890350341796893
 30
0.0
 11
199.5184783935546875
 21
15.0890350341796893
 31
0.0
  0
LINE
  5
232
100
AcDbEntity
100
AcDbLine
  8
CADDY_2
 62
8
370
-1
  6
CONTINUOUS
 10
200.5545196533203125
 20
15.0890350341796893
 30
0.0
 11
201.3685302734375
 21
15.0890350341796893
 31
0.0
  0
LINE
  5
233
100
AcDbEntity
100
AcDbLine
  8
CADDY_2
 62
8
370
-1
  6
CONTINUOUS
 10
200.5545196533203125
 20
15.1888580322265607
 30
0.0
 11
201.4425354003905966
 21
15.1888580322265607
 31
0.0
  0
LINE
  5
234
100
AcDbEntity
100
AcDbLine
  8
CADDY_2
 62
8
370
-1
  6
CONTINUOUS
 10
199.5924987792969034
 20
15.2886962890625
 30
0.0
 11
199.5924987792969034
 21
15.2886962890625
 31
0.0
  0
LINE
  5
235
100
AcDbEntity
100
AcDbLine
  8
CADDY_2
 62
8
370
-1
  6
CONTINUOUS
 10
200.6285095214844034
 20
15.2886962890625
 30
0.0
 11
201.5905609130859091
 21
15.2886962890625
 31
0.0
  0
LINE
  5
236
100
AcDbEntity
100
AcDbLine
  8
CADDY_2
 62
8
370
-1
  6
CONTINUOUS
 10
199.5924987792969034
 20
15.3885192871093803
 30
0.0
 11
199.5924987792969034
 21
15.3885192871093803
 31
0.0
  0
LINE
  5
237
100
AcDbEntity
100
AcDbLine
  8
CADDY_2
 62
8
370
-1
  6
CONTINUOUS
 10
200.6285095214844034
 20
15.3885192871093803
 30
0.0
 11
201.66455078125
 21
15.3885192871093803
 31
0.0
  0
LINE
  5
238
100
AcDbEntity
100
AcDbLine
  8
CADDY_2
 62
8
370
-1
  6
CONTINUOUS
 10
199.5924987792969034
 20
15.4883575439453107
 30
0.0
 11
199.5924987792969034
 21
15.4883575439453107
 31
0.0
  0
LINE
  5
239
100
AcDbEntity
100
AcDbLine
  8
CADDY_2
 62
8
370
-1
  6
CONTINUOUS
 10
200.7765350341796875
 20
15.4883575439453107
 30
0.0
 11
202.1085815429688068
 21
15.4883575439453107
 31
0.0
  0
LINE
  5
23A
100
AcDbEntity
100
AcDbLine
  8
CADDY_2
 62
8
370
-1
  6
CONTINUOUS
 10
199.5924987792969034
 20
15.5881805419921893
 30
0.0
 11
199.5924987792969034
 21
15.5881805419921893
 31
0.0
  0
LINE
  5
23B
100
AcDbEntity
100
AcDbLine
  8
CADDY_2
 62
8
370
-1
  6
CONTINUOUS
 10
200.8505249023438068
 20
15.5881805419921893
 30
0.0
 11
202.4046020507811932
 21
15.5881805419921893
 31
0.0
  0
LINE
  5
23C
100
AcDbEntity
100
AcDbLine
  8
CADDY_2
 62
8
370
-1
  6
CONTINUOUS
 10
199.66650390625
 20
15.6880035400390607
 30
0.0
 11
199.66650390625
 21
15.6880035400390607
 31
0.0
  0
LINE
  5
23D
100
AcDbEntity
100
AcDbLine
  8
CADDY_2
 62
8
370
-1
  6
CONTINUOUS
 10
200.9985504150390909
 20
15.6880035400390607
 30
0.0
 11
223.1252899169921875
 21
15.6880035400390607
 31
0.0
  0
LINE
  5
23E
100
AcDbEntity
100
AcDbLine
  8
CADDY_2
 62
8
370
-1
  6
CONTINUOUS
 10
199.66650390625
 20
15.787841796875
 30
0.0
 11
199.7404937744140909
 21
15.787841796875
 31
0.0
  0
LINE
  5
23F
100
AcDbEntity
100
AcDbLine
  8
CADDY_2
 62
8
370
-1
  6
CONTINUOUS
 10
201.1465454101561932
 20
15.787841796875
 30
0.0
 11
223.1252899169921875
 21
15.787841796875
 31
0.0
  0
LINE
  5
240
100
AcDbEntity
100
AcDbLine
  8
CADDY_2
 62
8
370
-1
  6
CONTINUOUS
 10
199.7404937744140909
 20
15.8876647949218803
 30
0.0
 11
199.7404937744140909
 21
15.8876647949218803
 31
0.0
  0
LINE
  5
241
100
AcDbEntity
100
AcDbLine
  8
CADDY_2
 62
8
370
-1
  6
CONTINUOUS
 10
201.2945709228515909
 20
15.8876647949218803
 30
0.0
 11
223.1252899169921875
 21
15.8876647949218803
 31
0.0
  0
LINE
  5
242
100
AcDbEntity
100
AcDbLine
  8
CADDY_2
 62
8
370
-1
  6
CONTINUOUS
 10
199.8144989013671875
 20
15.98748779296875
 30
0.0
 11
199.8885040283203125
 21
15.98748779296875
 31
0.0
  0
LINE
  5
243
100
AcDbEntity
100
AcDbLine
  8
CADDY_2
 62
8
370
-1
  6
CONTINUOUS
 10
201.66455078125
 20
15.98748779296875
 30
0.0
 11
223.1252899169921875
 21
15.98748779296875
 31
0.0
  0
LINE
  5
244
100
AcDbEntity
100
AcDbLine
  8
CADDY_2
 62
8
370
-1
  6
CONTINUOUS
 10
199.8144989013671875
 20
16.0873260498046911
 30
0.0
 11
199.8885040283203125
 21
16.0873260498046911
 31
0.0
  0
LINE
  5
245
100
AcDbEntity
100
AcDbLine
  8
CADDY_2
 62
8
370
-1
  6
CONTINUOUS
 10
222.7553100585938068
 20
16.0873260498046911
 30
0.0
 11
223.1252899169921875
 21
16.0873260498046911
 31
0.0
  0
LINE
  5
246
100
AcDbEntity
100
AcDbLine
  8
CADDY_2
 62
8
370
-1
  6
CONTINUOUS
 10
199.9624786376953125
 20
16.1871490478515589
 30
0.0
 11
199.9624786376953125
 21
16.1871490478515589
 31
0.0
  0
LINE
  5
247
100
AcDbEntity
100
AcDbLine
  8
CADDY_2
 62
8
370
-1
  6
CONTINUOUS
 10
222.7553100585938068
 20
16.1871490478515589
 30
0.0
 11
223.1252899169921875
 21
16.1871490478515589
 31
0.0
  0
LINE
  5
248
100
AcDbEntity
100
AcDbLine
  8
CADDY_2
 62
8
370
-1
  6
CONTINUOUS
 10
199.9624786376953125
 20
16.2869873046875
 30
0.0
 11
200.0364990234375
 21
16.2869873046875
 31
0.0
  0
LINE
  5
249
100
AcDbEntity
100
AcDbLine
  8
CADDY_2
 62
8
370
-1
  6
CONTINUOUS
 10
222.7553100585938068
 20
16.2869873046875
 30
0.0
 11
223.1252899169921875
 21
16.2869873046875
 31
0.0
  0
LINE
  5
24A
100
AcDbEntity
100
AcDbLine
  8
CADDY_2
 62
8
370
-1
  6
CONTINUOUS
 10
200.1105041503905966
 20
16.3868103027343786
 30
0.0
 11
200.1845245361328125
 21
16.3868103027343786
 31
0.0
  0
LINE
  5
24B
100
AcDbEntity
100
AcDbLine
  8
CADDY_2
 62
8
370
-1
  6
CONTINUOUS
 10
222.7553100585938068
 20
16.3868103027343786
 30
0.0
 11
223.1252899169921875
 21
16.3868103027343786
 31
0.0
  0
LINE
  5
24C
100
AcDbEntity
100
AcDbLine
  8
CADDY_2
 62
8
370
-1
  6
CONTINUOUS
 10
200.1845245361328125
 20
16.48663330078125
 30
0.0
 11
200.2584991455078125
 21
16.48663330078125
 31
0.0
  0
LINE
  5
24D
100
AcDbEntity
100
AcDbLine
  8
CADDY_2
 62
8
370
-1
  6
CONTINUOUS
 10
222.7553100585938068
 20
16.48663330078125
 30
0.0
 11
223.1252899169921875
 21
16.48663330078125
 31
0.0
  0
LINE
  5
24E
100
AcDbEntity
100
AcDbLine
  8
CADDY_2
 62
8
370
-1
  6
CONTINUOUS
 10
200.2584991455078125
 20
16.5864715576171911
 30
0.0
 11
200.3325042724609091
 21
16.5864715576171911
 31
0.0
  0
LINE
  5
24F
100
AcDbEntity
100
AcDbLine
  8
CADDY_2
 62
8
370
-1
  6
CONTINUOUS
 10
222.7553100585938068
 20
16.5864715576171911
 30
0.0
 11
223.1252899169921875
 21
16.5864715576171911
 31
0.0
  0
LINE
  5
250
100
AcDbEntity
100
AcDbLine
  8
CADDY_2
 62
8
370
-1
  6
CONTINUOUS
 10
200.4065246582030966
 20
16.6862945556640589
 30
0.0
 11
200.5545196533203125
 21
16.6862945556640589
 31
0.0
  0
LINE
  5
251
100
AcDbEntity
100
AcDbLine
  8
CADDY_2
 62
8
370
-1
  6
CONTINUOUS
 10
222.7553100585938068
 20
16.6862945556640589
 30
0.0
 11
223.1252899169921875
 21
16.6862945556640589
 31
0.0
  0
LINE
  5
252
100
AcDbEntity
100
AcDbLine
  8
CADDY_2
 62
8
370
-1
  6
CONTINUOUS
 10
200.4805297851561932
 20
16.7861175537109411
 30
0.0
 11
200.6285095214844034
 21
16.7861175537109411
 31
0.0
  0
LINE
  5
253
100
AcDbEntity
100
AcDbLine
  8
CADDY_2
 62
8
370
-1
  6
CONTINUOUS
 10
222.7553100585938068
 20
16.7861175537109411
 30
0.0
 11
223.1252899169921875
 21
16.7861175537109411
 31
0.0
  0
LINE
  5
254
100
AcDbEntity
100
AcDbLine
  8
CADDY_2
 62
8
370
-1
  6
CONTINUOUS
 10
200.7025299072265909
 20
16.8859558105468786
 30
0.0
 11
200.9245300292969034
 21
16.8859558105468786
 31
0.0
  0
LINE
  5
255
100
AcDbEntity
100
AcDbLine
  8
CADDY_2
 62
8
370
-1
  6
CONTINUOUS
 10
222.7553100585938068
 20
16.8859558105468786
 30
0.0
 11
223.1252899169921875
 21
16.8859558105468786
 31
0.0
  0
LINE
  5
256
100
AcDbEntity
100
AcDbLine
  8
CADDY_2
 62
8
370
-1
  6
CONTINUOUS
 10
200.7765350341796875
 20
16.98577880859375
 30
0.0
 11
201.0725250244140909
 21
16.98577880859375
 31
0.0
  0
LINE
  5
257
100
AcDbEntity
100
AcDbLine
  8
CADDY_2
 62
8
370
-1
  6
CONTINUOUS
 10
222.7553100585938068
 20
16.98577880859375
 30
0.0
 11
222.977294921875
 21
16.98577880859375
 31
0.0
  0
LINE
  5
258
100
AcDbEntity
100
AcDbLine
  8
CADDY_2
 62
8
370
-1
  6
CONTINUOUS
 10
201.1465454101561932
 20
17.0856170654296911
 30
0.0
 11
201.2205505371094034
 21
17.0856170654296911
 31
0.0
  0
LINE
  5
259
100
AcDbEntity
100
AcDbLine
  8
CADDY_2
 62
8
370
-1
  6
CONTINUOUS
 10
222.6072692871094034
 20
17.0856170654296911
 30
0.0
 11
222.8292694091796875
 21
17.0856170654296911
 31
0.0
  0
LINE
  5
25A
100
AcDbEntity
100
AcDbLine
  8
CADDY_2
 62
8
370
-1
  6
CONTINUOUS
 10
201.3685302734375
 20
17.1854400634765589
 30
0.0
 11
222.8292694091796875
 21
17.1854400634765589
 31
0.0
  0
LINE
  5
25B
100
AcDbEntity
100
AcDbLine
  8
CADDY_2
 62
140
370
-1
  6
CONTINUOUS
 10
198.9096984863280966
 20
7.9013519287109384
 30
0.0
 11
205.0573120117188068
 21
7.9013519287109384
 31
0.0
  0
LINE
  5
25C
100
AcDbEntity
100
AcDbLine
  8
CADDY_2
 62
140
370
-1
  6
CONTINUOUS
 10
198.9096984863280966
 20
8.0041961669921875
 30
0.0
 11
205.2822418212890909
 21
8.0041961669921875
 31
0.0
  0
LINE
  5
25D
100
AcDbEntity
100
AcDbLine
  8
CADDY_2
 62
140
370
-1
  6
CONTINUOUS
 10
198.9096984863280966
 20
8.107025146484375
 30
0.0
 11
205.8070068359375
 21
8.107025146484375
 31
0.0
  0
LINE
  5
25E
100
AcDbEntity
100
AcDbLine
  8
CADDY_2
 62
140
370
-1
  6
CONTINUOUS
 10
198.9096984863280966
 20
8.209869384765625
 30
0.0
 11
205.8820190429688068
 21
8.209869384765625
 31
0.0
  0
LINE
  5
25F
100
AcDbEntity
100
AcDbLine
  8
CADDY_2
 62
140
370
-1
  6
CONTINUOUS
 10
198.9096984863280966
 20
8.3126983642578125
 30
0.0
 11
206.1818695068359091
 21
8.3126983642578125
 31
0.0
  0
LINE
  5
260
100
AcDbEntity
100
AcDbLine
  8
CADDY_2
 62
140
370
-1
  6
CONTINUOUS
 10
198.9096984863280966
 20
8.41552734375
 30
0.0
 11
206.2568511962890909
 21
8.41552734375
 31
0.0
  0
LINE
  5
261
100
AcDbEntity
100
AcDbLine
  8
CADDY_2
 62
140
370
-1
  6
CONTINUOUS
 10
198.9096984863280966
 20
8.51837158203125
 30
0.0
 11
206.4817810058594034
 21
8.51837158203125
 31
0.0
  0
LINE
  5
262
100
AcDbEntity
100
AcDbLine
  8
CADDY_2
 62
140
370
-1
  6
CONTINUOUS
 10
198.9096984863280966
 20
8.6212005615234375
 30
0.0
 11
206.6317138671875
 21
8.6212005615234375
 31
0.0
  0
LINE
  5
263
100
AcDbEntity
100
AcDbLine
  8
CADDY_2
 62
140
370
-1
  6
CONTINUOUS
 10
198.9096984863280966
 20
8.7240447998046875
 30
0.0
 11
206.6317138671875
 21
8.7240447998046875
 31
0.0
  0
LINE
  5
264
100
AcDbEntity
100
AcDbLine
  8
CADDY_2
 62
140
370
-1
  6
CONTINUOUS
 10
204.8324127197265909
 20
8.826873779296875
 30
0.0
 11
206.7816467285155966
 21
8.826873779296875
 31
0.0
  0
LINE
  5
265
100
AcDbEntity
100
AcDbLine
  8
CADDY_2
 62
140
370
-1
  6
CONTINUOUS
 10
204.9823455810546875
 20
8.929718017578125
 30
0.0
 11
206.8566131591796875
 21
8.929718017578125
 31
0.0
  0
LINE
  5
266
100
AcDbEntity
100
AcDbLine
  8
CADDY_2
 62
140
370
-1
  6
CONTINUOUS
 10
214.2787475585938068
 20
8.929718017578125
 30
0.0
 11
216.3779144287109091
 21
8.929718017578125
 31
0.0
  0
LINE
  5
267
100
AcDbEntity
100
AcDbLine
  8
CADDY_2
 62
140
370
-1
  6
CONTINUOUS
 10
216.9027252197265909
 20
8.929718017578125
 30
0.0
 11
218.1772155761719034
 21
8.929718017578125
 31
0.0
  0
LINE
  5
268
100
AcDbEntity
100
AcDbLine
  8
CADDY_2
 62
140
370
-1
  6
CONTINUOUS
 10
219.5267028808594034
 20
8.929718017578125
 30
0.0
 11
219.9765319824219034
 21
8.929718017578125
 31
0.0
  0
LINE
  5
269
100
AcDbEntity
100
AcDbLine
  8
CADDY_2
 62
140
370
-1
  6
CONTINUOUS
 10
221.7008361816405966
 20
8.929718017578125
 30
0.0
 11
222.1506805419921875
 21
8.929718017578125
 31
0.0
  0
LINE
  5
26A
100
AcDbEntity
100
AcDbLine
  8
CADDY_2
 62
140
370
-1
  6
CONTINUOUS
 10
205.2822418212890909
 20
9.0325469970703125
 30
0.0
 11
206.9316101074219034
 21
9.0325469970703125
 31
0.0
  0
LINE
  5
26B
100
AcDbEntity
100
AcDbLine
  8
CADDY_2
 62
140
370
-1
  6
CONTINUOUS
 10
209.2557067871094034
 20
9.0325469970703125
 30
0.0
 11
210.5301666259765909
 21
9.0325469970703125
 31
0.0
  0
LINE
  5
26C
100
AcDbEntity
100
AcDbLine
  8
CADDY_2
 62
140
370
-1
  6
CONTINUOUS
 10
211.3548431396484091
 20
9.0325469970703125
 30
0.0
 11
211.8796844482421875
 21
9.0325469970703125
 31
0.0
  0
LINE
  5
26D
100
AcDbEntity
100
AcDbLine
  8
CADDY_2
 62
140
370
-1
  6
CONTINUOUS
 10
213.1541595458984091
 20
9.0325469970703125
 30
0.0
 11
213.6039886474609091
 21
9.0325469970703125
 31
0.0
  0
LINE
  5
26E
100
AcDbEntity
100
AcDbLine
  8
CADDY_2
 62
140
370
-1
  6
CONTINUOUS
 10
214.2787475585938068
 20
9.0325469970703125
 30
0.0
 11
216.3779144287109091
 21
9.0325469970703125
 31
0.0
  0
LINE
  5
26F
100
AcDbEntity
100
AcDbLine
  8
CADDY_2
 62
140
370
-1
  6
CONTINUOUS
 10
216.9027252197265909
 20
9.0325469970703125
 30
0.0
 11
218.9269256591796875
 21
9.0325469970703125
 31
0.0
  0
LINE
  5
270
100
AcDbEntity
100
AcDbLine
  8
CADDY_2
 62
140
370
-1
  6
CONTINUOUS
 10
219.5267028808594034
 20
9.0325469970703125
 30
0.0
 11
220.1264801025390909
 21
9.0325469970703125
 31
0.0
  0
LINE
  5
271
100
AcDbEntity
100
AcDbLine
  8
CADDY_2
 62
140
370
-1
  6
CONTINUOUS
 10
221.6258850097655966
 20
9.0325469970703125
 30
0.0
 11
222.1506805419921875
 21
9.0325469970703125
 31
0.0
  0
LINE
  5
272
100
AcDbEntity
100
AcDbLine
  8
CADDY_2
 62
140
370
-1
  6
CONTINUOUS
 10
205.4321899414061932
 20
9.1353912353515625
 30
0.0
 11
207.0065460205078125
 21
9.1353912353515625
 31
0.0
  0
LINE
  5
273
100
AcDbEntity
100
AcDbLine
  8
CADDY_2
 62
140
370
-1
  6
CONTINUOUS
 10
209.1807098388671875
 20
9.1353912353515625
 30
0.0
 11
210.6801452636719034
 21
9.1353912353515625
 31
0.0
  0
LINE
  5
274
100
AcDbEntity
100
AcDbLine
  8
CADDY_2
 62
140
370
-1
  6
CONTINUOUS
 10
211.3548431396484091
 20
9.1353912353515625
 30
0.0
 11
211.8796844482421875
 21
9.1353912353515625
 31
0.0
  0
LINE
  5
275
100
AcDbEntity
100
AcDbLine
  8
CADDY_2
 62
140
370
-1
  6
CONTINUOUS
 10
213.1541595458984091
 20
9.1353912353515625
 30
0.0
 11
213.6039886474609091
 21
9.1353912353515625
 31
0.0
  0
LINE
  5
276
100
AcDbEntity
100
AcDbLine
  8
CADDY_2
 62
140
370
-1
  6
CONTINUOUS
 10
214.2787475585938068
 20
9.1353912353515625
 30
0.0
 11
216.3779144287109091
 21
9.1353912353515625
 31
0.0
  0
LINE
  5
277
100
AcDbEntity
100
AcDbLine
  8
CADDY_2
 62
140
370
-1
  6
CONTINUOUS
 10
216.9027252197265909
 20
9.1353912353515625
 30
0.0
 11
219.0018920898438068
 21
9.1353912353515625
 31
0.0
  0
LINE
  5
278
100
AcDbEntity
100
AcDbLine
  8
CADDY_2
 62
140
370
-1
  6
CONTINUOUS
 10
219.6016693115234091
 20
9.1353912353515625
 30
0.0
 11
220.1264801025390909
 21
9.1353912353515625
 31
0.0
  0
LINE
  5
279
100
AcDbEntity
100
AcDbLine
  8
CADDY_2
 62
140
370
-1
  6
CONTINUOUS
 10
221.6258850097655966
 20
9.1353912353515625
 30
0.0
 11
222.1506805419921875
 21
9.1353912353515625
 31
0.0
  0
LINE
  5
27A
100
AcDbEntity
100
AcDbLine
  8
CADDY_2
 62
140
370
-1
  6
CONTINUOUS
 10
205.6570892333984091
 20
9.23822021484375
 30
0.0
 11
207.0815277099609091
 21
9.23822021484375
 31
0.0
  0
LINE
  5
27B
100
AcDbEntity
100
AcDbLine
  8
CADDY_2
 62
140
370
-1
  6
CONTINUOUS
 10
208.955810546875
 20
9.23822021484375
 30
0.0
 11
210.830078125
 21
9.23822021484375
 31
0.0
  0
LINE
  5
27C
100
AcDbEntity
100
AcDbLine
  8
CADDY_2
 62
140
370
-1
  6
CONTINUOUS
 10
211.3548431396484091
 20
9.23822021484375
 30
0.0
 11
211.8796844482421875
 21
9.23822021484375
 31
0.0
  0
LINE
  5
27D
100
AcDbEntity
100
AcDbLine
  8
CADDY_2
 62
140
370
-1
  6
CONTINUOUS
 10
213.1541595458984091
 20
9.23822021484375
 30
0.0
 11
213.6039886474609091
 21
9.23822021484375
 31
0.0
  0
LINE
  5
27E
100
AcDbEntity
100
AcDbLine
  8
CADDY_2
 62
140
370
-1
  6
CONTINUOUS
 10
214.2787475585938068
 20
9.23822021484375
 30
0.0
 11
216.3779144287109091
 21
9.23822021484375
 31
0.0
  0
LINE
  5
27F
100
AcDbEntity
100
AcDbLine
  8
CADDY_2
 62
140
370
-1
  6
CONTINUOUS
 10
216.9027252197265909
 20
9.23822021484375
 30
0.0
 11
219.0768585205078125
 21
9.23822021484375
 31
0.0
  0
LINE
  5
280
100
AcDbEntity
100
AcDbLine
  8
CADDY_2
 62
140
370
-1
  6
CONTINUOUS
 10
219.6766357421875
 20
9.23822021484375
 30
0.0
 11
220.1264801025390909
 21
9.23822021484375
 31
0.0
  0
LINE
  5
281
100
AcDbEntity
100
AcDbLine
  8
CADDY_2
 62
140
370
-1
  6
CONTINUOUS
 10
221.5509033203125
 20
9.23822021484375
 30
0.0
 11
222.1506805419921875
 21
9.23822021484375
 31
0.0
  0
LINE
  5
282
100
AcDbEntity
100
AcDbLine
  8
CADDY_2
 62
140
370
-1
  6
CONTINUOUS
 10
205.8070068359375
 20
9.3410491943359375
 30
0.0
 11
207.156494140625
 21
9.3410491943359375
 31
0.0
  0
LINE
  5
283
100
AcDbEntity
100
AcDbLine
  8
CADDY_2
 62
140
370
-1
  6
CONTINUOUS
 10
208.8808441162109091
 20
9.3410491943359375
 30
0.0
 11
210.9050598144530966
 21
9.3410491943359375
 31
0.0
  0
LINE
  5
284
100
AcDbEntity
100
AcDbLine
  8
CADDY_2
 62
140
370
-1
  6
CONTINUOUS
 10
211.3548431396484091
 20
9.3410491943359375
 30
0.0
 11
211.8796844482421875
 21
9.3410491943359375
 31
0.0
  0
LINE
  5
285
100
AcDbEntity
100
AcDbLine
  8
CADDY_2
 62
140
370
-1
  6
CONTINUOUS
 10
213.1541595458984091
 20
9.3410491943359375
 30
0.0
 11
213.6789855957030966
 21
9.3410491943359375
 31
0.0
  0
LINE
  5
286
100
AcDbEntity
100
AcDbLine
  8
CADDY_2
 62
140
370
-1
  6
CONTINUOUS
 10
214.2787475585938068
 20
9.3410491943359375
 30
0.0
 11
216.3779144287109091
 21
9.3410491943359375
 31
0.0
  0
LINE
  5
287
100
AcDbEntity
100
AcDbLine
  8
CADDY_2
 62
140
370
-1
  6
CONTINUOUS
 10
216.9027252197265909
 20
9.3410491943359375
 30
0.0
 11
219.1518249511719034
 21
9.3410491943359375
 31
0.0
  0
LINE
  5
288
100
AcDbEntity
100
AcDbLine
  8
CADDY_2
 62
140
370
-1
  6
CONTINUOUS
 10
219.6766357421875
 20
9.3410491943359375
 30
0.0
 11
220.2014465332030966
 21
9.3410491943359375
 31
0.0
  0
LINE
  5
289
100
AcDbEntity
100
AcDbLine
  8
CADDY_2
 62
140
370
-1
  6
CONTINUOUS
 10
221.5509033203125
 20
9.3410491943359375
 30
0.0
 11
222.1506805419921875
 21
9.3410491943359375
 31
0.0
  0
LINE
  5
28A
100
AcDbEntity
100
AcDbLine
  8
CADDY_2
 62
140
370
-1
  6
CONTINUOUS
 10
205.8820190429688068
 20
9.4438934326171875
 30
0.0
 11
207.156494140625
 21
9.4438934326171875
 31
0.0
  0
LINE
  5
28B
100
AcDbEntity
100
AcDbLine
  8
CADDY_2
 62
140
370
-1
  6
CONTINUOUS
 10
208.8808441162109091
 20
9.4438934326171875
 30
0.0
 11
210.9050598144530966
 21
9.4438934326171875
 31
0.0
  0
LINE
  5
28C
100
AcDbEntity
100
AcDbLine
  8
CADDY_2
 62
140
370
-1
  6
CONTINUOUS
 10
211.3548431396484091
 20
9.4438934326171875
 30
0.0
 11
211.8796844482421875
 21
9.4438934326171875
 31
0.0
  0
LINE
  5
28D
100
AcDbEntity
100
AcDbLine
  8
CADDY_2
 62
140
370
-1
  6
CONTINUOUS
 10
213.1541595458984091
 20
9.4438934326171875
 30
0.0
 11
213.6789855957030966
 21
9.4438934326171875
 31
0.0
  0
LINE
  5
28E
100
AcDbEntity
100
AcDbLine
  8
CADDY_2
 62
140
370
-1
  6
CONTINUOUS
 10
214.2787475585938068
 20
9.4438934326171875
 30
0.0
 11
214.8035278320311932
 21
9.4438934326171875
 31
0.0
  0
LINE
  5
28F
100
AcDbEntity
100
AcDbLine
  8
CADDY_2
 62
140
370
-1
  6
CONTINUOUS
 10
215.0284423828125
 20
9.4438934326171875
 30
0.0
 11
216.3779144287109091
 21
9.4438934326171875
 31
0.0
  0
LINE
  5
290
100
AcDbEntity
100
AcDbLine
  8
CADDY_2
 62
140
370
-1
  6
CONTINUOUS
 10
216.9027252197265909
 20
9.4438934326171875
 30
0.0
 11
217.4275054931640909
 21
9.4438934326171875
 31
0.0
  0
LINE
  5
291
100
AcDbEntity
100
AcDbLine
  8
CADDY_2
 62
140
370
-1
  6
CONTINUOUS
 10
217.6524505615234091
 20
9.4438934326171875
 30
0.0
 11
219.2268371582030966
 21
9.4438934326171875
 31
0.0
  0
LINE
  5
292
100
AcDbEntity
100
AcDbLine
  8
CADDY_2
 62
140
370
-1
  6
CONTINUOUS
 10
219.6766357421875
 20
9.4438934326171875
 30
0.0
 11
220.2764129638671875
 21
9.4438934326171875
 31
0.0
  0
LINE
  5
293
100
AcDbEntity
100
AcDbLine
  8
CADDY_2
 62
140
370
-1
  6
CONTINUOUS
 10
221.4759216308594034
 20
9.4438934326171875
 30
0.0
 11
222.07568359375
 21
9.4438934326171875
 31
0.0
  0
LINE
  5
294
100
AcDbEntity
100
AcDbLine
  8
CADDY_2
 62
140
370
-1
  6
CONTINUOUS
 10
206.0319366455078125
 20
9.546722412109375
 30
0.0
 11
207.2314758300780966
 21
9.546722412109375
 31
0.0
  0
LINE
  5
295
100
AcDbEntity
100
AcDbLine
  8
CADDY_2
 62
140
370
-1
  6
CONTINUOUS
 10
208.7308959960938068
 20
9.546722412109375
 30
0.0
 11
209.6305236816405966
 21
9.546722412109375
 31
0.0
  0
LINE
  5
296
100
AcDbEntity
100
AcDbLine
  8
CADDY_2
 62
140
370
-1
  6
CONTINUOUS
 10
210.4552307128905966
 20
9.546722412109375
 30
0.0
 11
210.9050598144530966
 21
9.546722412109375
 31
0.0
  0
LINE
  5
297
100
AcDbEntity
100
AcDbLine
  8
CADDY_2
 62
140
370
-1
  6
CONTINUOUS
 10
211.3548431396484091
 20
9.546722412109375
 30
0.0
 11
211.8796844482421875
 21
9.546722412109375
 31
0.0
  0
LINE
  5
298
100
AcDbEntity
100
AcDbLine
  8
CADDY_2
 62
140
370
-1
  6
CONTINUOUS
 10
213.1541595458984091
 20
9.546722412109375
 30
0.0
 11
213.6039886474609091
 21
9.546722412109375
 31
0.0
  0
LINE
  5
299
100
AcDbEntity
100
AcDbLine
  8
CADDY_2
 62
140
370
-1
  6
CONTINUOUS
 10
214.2787475585938068
 20
9.546722412109375
 30
0.0
 11
214.8035278320311932
 21
9.546722412109375
 31
0.0
  0
LINE
  5
29A
100
AcDbEntity
100
AcDbLine
  8
CADDY_2
 62
140
370
-1
  6
CONTINUOUS
 10
216.9027252197265909
 20
9.546722412109375
 30
0.0
 11
217.4275054931640909
 21
9.546722412109375
 31
0.0
  0
LINE
  5
29B
100
AcDbEntity
100
AcDbLine
  8
CADDY_2
 62
140
370
-1
  6
CONTINUOUS
 10
218.7019958496094034
 20
9.546722412109375
 30
0.0
 11
219.2268371582030966
 21
9.546722412109375
 31
0.0
  0
LINE
  5
29C
100
AcDbEntity
100
AcDbLine
  8
CADDY_2
 62
140
370
-1
  6
CONTINUOUS
 10
219.7516021728515909
 20
9.546722412109375
 30
0.0
 11
220.2764129638671875
 21
9.546722412109375
 31
0.0
  0
LINE
  5
29D
100
AcDbEntity
100
AcDbLine
  8
CADDY_2
 62
140
370
-1
  6
CONTINUOUS
 10
221.4759216308594034
 20
9.546722412109375
 30
0.0
 11
222.07568359375
 21
9.546722412109375
 31
0.0
  0
LINE
  5
29E
100
AcDbEntity
100
AcDbLine
  8
CADDY_2
 62
140
370
-1
  6
CONTINUOUS
 10
206.1069030761719034
 20
9.649566650390625
 30
0.0
 11
207.2314758300780966
 21
9.649566650390625
 31
0.0
  0
LINE
  5
29F
100
AcDbEntity
100
AcDbLine
  8
CADDY_2
 62
140
370
-1
  6
CONTINUOUS
 10
208.7308959960938068
 20
9.649566650390625
 30
0.0
 11
209.4805908203125
 21
9.649566650390625
 31
0.0
  0
LINE
  5
2A0
100
AcDbEntity
100
AcDbLine
  8
CADDY_2
 62
140
370
-1
  6
CONTINUOUS
 10
210.6051635742188068
 20
9.649566650390625
 30
0.0
 11
210.9050598144530966
 21
9.649566650390625
 31
0.0
  0
LINE
  5
2A1
100
AcDbEntity
100
AcDbLine
  8
CADDY_2
 62
140
370
-1
  6
CONTINUOUS
 10
211.3548431396484091
 20
9.649566650390625
 30
0.0
 11
211.8796844482421875
 21
9.649566650390625
 31
0.0
  0
LINE
  5
2A2
100
AcDbEntity
100
AcDbLine
  8
CADDY_2
 62
140
370
-1
  6
CONTINUOUS
 10
213.1541595458984091
 20
9.649566650390625
 30
0.0
 11
213.6789855957030966
 21
9.649566650390625
 31
0.0
  0
LINE
  5
2A3
100
AcDbEntity
100
AcDbLine
  8
CADDY_2
 62
140
370
-1
  6
CONTINUOUS
 10
214.2787475585938068
 20
9.649566650390625
 30
0.0
 11
214.8035278320311932
 21
9.649566650390625
 31
0.0
  0
LINE
  5
2A4
100
AcDbEntity
100
AcDbLine
  8
CADDY_2
 62
140
370
-1
  6
CONTINUOUS
 10
216.9027252197265909
 20
9.649566650390625
 30
0.0
 11
217.4275054931640909
 21
9.649566650390625
 31
0.0
  0
LINE
  5
2A5
100
AcDbEntity
100
AcDbLine
  8
CADDY_2
 62
140
370
-1
  6
CONTINUOUS
 10
218.7769927978515909
 20
9.649566650390625
 30
0.0
 11
219.3017730712890909
 21
9.649566650390625
 31
0.0
  0
LINE
  5
2A6
100
AcDbEntity
100
AcDbLine
  8
CADDY_2
 62
140
370
-1
  6
CONTINUOUS
 10
219.8265991210938068
 20
9.649566650390625
 30
0.0
 11
222.0007476806640909
 21
9.649566650390625
 31
0.0
  0
LINE
  5
2A7
100
AcDbEntity
100
AcDbLine
  8
CADDY_2
 62
140
370
-1
  6
CONTINUOUS
 10
206.1818695068359091
 20
9.7523956298828125
 30
0.0
 11
207.3064575195311932
 21
9.7523956298828125
 31
0.0
  0
LINE
  5
2A8
100
AcDbEntity
100
AcDbLine
  8
CADDY_2
 62
140
370
-1
  6
CONTINUOUS
 10
208.6559295654296875
 20
9.7523956298828125
 30
0.0
 11
209.2557067871094034
 21
9.7523956298828125
 31
0.0
  0
LINE
  5
2A9
100
AcDbEntity
100
AcDbLine
  8
CADDY_2
 62
140
370
-1
  6
CONTINUOUS
 10
210.7550964355469034
 20
9.7523956298828125
 30
0.0
 11
210.9050598144530966
 21
9.7523956298828125
 31
0.0
  0
LINE
  5
2AA
100
AcDbEntity
100
AcDbLine
  8
CADDY_2
 62
140
370
-1
  6
CONTINUOUS
 10
211.3548431396484091
 20
9.7523956298828125
 30
0.0
 11
211.8796844482421875
 21
9.7523956298828125
 31
0.0
  0
LINE
  5
2AB
100
AcDbEntity
100
AcDbLine
  8
CADDY_2
 62
140
370
-1
  6
CONTINUOUS
 10
213.1541595458984091
 20
9.7523956298828125
 30
0.0
 11
213.6789855957030966
 21
9.7523956298828125
 31
0.0
  0
LINE
  5
2AC
100
AcDbEntity
100
AcDbLine
  8
CADDY_2
 62
140
370
-1
  6
CONTINUOUS
 10
214.2787475585938068
 20
9.7523956298828125
 30
0.0
 11
214.8035278320311932
 21
9.7523956298828125
 31
0.0
  0
LINE
  5
2AD
100
AcDbEntity
100
AcDbLine
  8
CADDY_2
 62
140
370
-1
  6
CONTINUOUS
 10
216.9027252197265909
 20
9.7523956298828125
 30
0.0
 11
217.4275054931640909
 21
9.7523956298828125
 31
0.0
  0
LINE
  5
2AE
100
AcDbEntity
100
AcDbLine
  8
CADDY_2
 62
140
370
-1
  6
CONTINUOUS
 10
218.7769927978515909
 20
9.7523956298828125
 30
0.0
 11
219.3017730712890909
 21
9.7523956298828125
 31
0.0
  0
LINE
  5
2AF
100
AcDbEntity
100
AcDbLine
  8
CADDY_2
 62
140
370
-1
  6
CONTINUOUS
 10
219.8265991210938068
 20
9.7523956298828125
 30
0.0
 11
221.8507995605469034
 21
9.7523956298828125
 31
0.0
  0
LINE
  5
2B0
100
AcDbEntity
100
AcDbLine
  8
CADDY_2
 62
140
370
-1
  6
CONTINUOUS
 10
206.1818695068359091
 20
9.855224609375
 30
0.0
 11
207.3064575195311932
 21
9.855224609375
 31
0.0
  0
LINE
  5
2B1
100
AcDbEntity
100
AcDbLine
  8
CADDY_2
 62
140
370
-1
  6
CONTINUOUS
 10
208.6559295654296875
 20
9.855224609375
 30
0.0
 11
209.1807098388671875
 21
9.855224609375
 31
0.0
  0
LINE
  5
2B2
100
AcDbEntity
100
AcDbLine
  8
CADDY_2
 62
140
370
-1
  6
CONTINUOUS
 10
210.830078125
 20
9.855224609375
 30
0.0
 11
210.9050598144530966
 21
9.855224609375
 31
0.0
  0
LINE
  5
2B3
100
AcDbEntity
100
AcDbLine
  8
CADDY_2
 62
140
370
-1
  6
CONTINUOUS
 10
211.3548431396484091
 20
9.855224609375
 30
0.0
 11
211.8796844482421875
 21
9.855224609375
 31
0.0
  0
LINE
  5
2B4
100
AcDbEntity
100
AcDbLine
  8
CADDY_2
 62
140
370
-1
  6
CONTINUOUS
 10
213.1541595458984091
 20
9.855224609375
 30
0.0
 11
213.6789855957030966
 21
9.855224609375
 31
0.0
  0
LINE
  5
2B5
100
AcDbEntity
100
AcDbLine
  8
CADDY_2
 62
140
370
-1
  6
CONTINUOUS
 10
214.2787475585938068
 20
9.855224609375
 30
0.0
 11
214.8035278320311932
 21
9.855224609375
 31
0.0
  0
LINE
  5
2B6
100
AcDbEntity
100
AcDbLine
  8
CADDY_2
 62
140
370
-1
  6
CONTINUOUS
 10
216.9027252197265909
 20
9.855224609375
 30
0.0
 11
217.4275054931640909
 21
9.855224609375
 31
0.0
  0
LINE
  5
2B7
100
AcDbEntity
100
AcDbLine
  8
CADDY_2
 62
140
370
-1
  6
CONTINUOUS
 10
218.7769927978515909
 20
9.855224609375
 30
0.0
 11
219.3017730712890909
 21
9.855224609375
 31
0.0
  0
LINE
  5
2B8
100
AcDbEntity
100
AcDbLine
  8
CADDY_2
 62
140
370
-1
  6
CONTINUOUS
 10
219.8265991210938068
 20
9.855224609375
 30
0.0
 11
221.9257659912109091
 21
9.855224609375
 31
0.0
  0
LINE
  5
2B9
100
AcDbEntity
100
AcDbLine
  8
CADDY_2
 62
140
370
-1
  6
CONTINUOUS
 10
206.3318481445311932
 20
9.95806884765625
 30
0.0
 11
207.3064575195311932
 21
9.95806884765625
 31
0.0
  0
LINE
  5
2BA
100
AcDbEntity
100
AcDbLine
  8
CADDY_2
 62
140
370
-1
  6
CONTINUOUS
 10
208.6559295654296875
 20
9.95806884765625
 30
0.0
 11
209.1057739257811932
 21
9.95806884765625
 31
0.0
  0
LINE
  5
2BB
100
AcDbEntity
100
AcDbLine
  8
CADDY_2
 62
140
370
-1
  6
CONTINUOUS
 10
211.3548431396484091
 20
9.95806884765625
 30
0.0
 11
211.8796844482421875
 21
9.95806884765625
 31
0.0
  0
LINE
  5
2BC
100
AcDbEntity
100
AcDbLine
  8
CADDY_2
 62
140
370
-1
  6
CONTINUOUS
 10
213.1541595458984091
 20
9.95806884765625
 30
0.0
 11
213.6789855957030966
 21
9.95806884765625
 31
0.0
  0
LINE
  5
2BD
100
AcDbEntity
100
AcDbLine
  8
CADDY_2
 62
140
370
-1
  6
CONTINUOUS
 10
214.2787475585938068
 20
9.95806884765625
 30
0.0
 11
214.8035278320311932
 21
9.95806884765625
 31
0.0
  0
LINE
  5
2BE
100
AcDbEntity
100
AcDbLine
  8
CADDY_2
 62
140
370
-1
  6
CONTINUOUS
 10
216.9027252197265909
 20
9.95806884765625
 30
0.0
 11
217.4275054931640909
 21
9.95806884765625
 31
0.0
  0
LINE
  5
2BF
100
AcDbEntity
100
AcDbLine
  8
CADDY_2
 62
140
370
-1
  6
CONTINUOUS
 10
218.7769927978515909
 20
9.95806884765625
 30
0.0
 11
219.3017730712890909
 21
9.95806884765625
 31
0.0
  0
LINE
  5
2C0
100
AcDbEntity
100
AcDbLine
  8
CADDY_2
 62
140
370
-1
  6
CONTINUOUS
 10
219.9015350341796875
 20
9.95806884765625
 30
0.0
 11
221.8507995605469034
 21
9.95806884765625
 31
0.0
  0
LINE
  5
2C1
100
AcDbEntity
100
AcDbLine
  8
CADDY_2
 62
140
370
-1
  6
CONTINUOUS
 10
206.3318481445311932
 20
10.0609130859375
 30
0.0
 11
207.3064575195311932
 21
10.0609130859375
 31
0.0
  0
LINE
  5
2C2
100
AcDbEntity
100
AcDbLine
  8
CADDY_2
 62
140
370
-1
  6
CONTINUOUS
 10
208.5809326171875
 20
10.0609130859375
 30
0.0
 11
209.1057739257811932
 21
10.0609130859375
 31
0.0
  0
LINE
  5
2C3
100
AcDbEntity
100
AcDbLine
  8
CADDY_2
 62
140
370
-1
  6
CONTINUOUS
 10
211.3548431396484091
 20
10.0609130859375
 30
0.0
 11
211.8796844482421875
 21
10.0609130859375
 31
0.0
  0
LINE
  5
2C4
100
AcDbEntity
100
AcDbLine
  8
CADDY_2
 62
140
370
-1
  6
CONTINUOUS
 10
213.1541595458984091
 20
10.0609130859375
 30
0.0
 11
213.6789855957030966
 21
10.0609130859375
 31
0.0
  0
LINE
  5
2C5
100
AcDbEntity
100
AcDbLine
  8
CADDY_2
 62
140
370
-1
  6
CONTINUOUS
 10
214.2787475585938068
 20
10.0609130859375
 30
0.0
 11
214.8035278320311932
 21
10.0609130859375
 31
0.0
  0
LINE
  5
2C6
100
AcDbEntity
100
AcDbLine
  8
CADDY_2
 62
140
370
-1
  6
CONTINUOUS
 10
216.9027252197265909
 20
10.0609130859375
 30
0.0
 11
217.4275054931640909
 21
10.0609130859375
 31
0.0
  0
LINE
  5
2C7
100
AcDbEntity
100
AcDbLine
  8
CADDY_2
 62
140
370
-1
  6
CONTINUOUS
 10
218.7019958496094034
 20
10.0609130859375
 30
0.0
 11
219.3017730712890909
 21
10.0609130859375
 31
0.0
  0
LINE
  5
2C8
100
AcDbEntity
100
AcDbLine
  8
CADDY_2
 62
140
370
-1
  6
CONTINUOUS
 10
219.9765319824219034
 20
10.0609130859375
 30
0.0
 11
221.8507995605469034
 21
10.0609130859375
 31
0.0
  0
LINE
  5
2C9
100
AcDbEntity
100
AcDbLine
  8
CADDY_2
 62
140
370
-1
  6
CONTINUOUS
 10
206.3318481445311932
 20
10.1637420654296893
 30
0.0
 11
207.3064575195311932
 21
10.1637420654296893
 31
0.0
  0
LINE
  5
2CA
100
AcDbEntity
100
AcDbLine
  8
CADDY_2
 62
140
370
-1
  6
CONTINUOUS
 10
208.5809326171875
 20
10.1637420654296893
 30
0.0
 11
209.0307769775390909
 21
10.1637420654296893
 31
0.0
  0
LINE
  5
2CB
100
AcDbEntity
100
AcDbLine
  8
CADDY_2
 62
140
370
-1
  6
CONTINUOUS
 10
211.3548431396484091
 20
10.1637420654296893
 30
0.0
 11
211.8796844482421875
 21
10.1637420654296893
 31
0.0
  0
LINE
  5
2CC
100
AcDbEntity
100
AcDbLine
  8
CADDY_2
 62
140
370
-1
  6
CONTINUOUS
 10
213.1541595458984091
 20
10.1637420654296893
 30
0.0
 11
213.6039886474609091
 21
10.1637420654296893
 31
0.0
  0
LINE
  5
2CD
100
AcDbEntity
100
AcDbLine
  8
CADDY_2
 62
140
370
-1
  6
CONTINUOUS
 10
214.2787475585938068
 20
10.1637420654296893
 30
0.0
 11
214.8035278320311932
 21
10.1637420654296893
 31
0.0
  0
LINE
  5
2CE
100
AcDbEntity
100
AcDbLine
  8
CADDY_2
 62
140
370
-1
  6
CONTINUOUS
 10
216.9027252197265909
 20
10.1637420654296893
 30
0.0
 11
217.4275054931640909
 21
10.1637420654296893
 31
0.0
  0
LINE
  5
2CF
100
AcDbEntity
100
AcDbLine
  8
CADDY_2
 62
140
370
-1
  6
CONTINUOUS
 10
218.6270599365234091
 20
10.1637420654296893
 30
0.0
 11
219.2268371582030966
 21
10.1637420654296893
 31
0.0
  0
LINE
  5
2D0
100
AcDbEntity
100
AcDbLine
  8
CADDY_2
 62
140
370
-1
  6
CONTINUOUS
 10
219.9765319824219034
 20
10.1637420654296893
 30
0.0
 11
220.5012969970703125
 21
10.1637420654296893
 31
0.0
  0
LINE
  5
2D1
100
AcDbEntity
100
AcDbLine
  8
CADDY_2
 62
140
370
-1
  6
CONTINUOUS
 10
221.2510223388671875
 20
10.1637420654296893
 30
0.0
 11
221.8507995605469034
 21
10.1637420654296893
 31
0.0
  0
LINE
  5
2D2
100
AcDbEntity
100
AcDbLine
  8
CADDY_2
 62
140
370
-1
  6
CONTINUOUS
 10
206.3318481445311932
 20
10.2665863037109393
 30
0.0
 11
207.3813934326171875
 21
10.2665863037109393
 31
0.0
  0
LINE
  5
2D3
100
AcDbEntity
100
AcDbLine
  8
CADDY_2
 62
140
370
-1
  6
CONTINUOUS
 10
208.5809326171875
 20
10.2665863037109393
 30
0.0
 11
209.0307769775390909
 21
10.2665863037109393
 31
0.0
  0
LINE
  5
2D4
100
AcDbEntity
100
AcDbLine
  8
CADDY_2
 62
140
370
-1
  6
CONTINUOUS
 10
211.3548431396484091
 20
10.2665863037109393
 30
0.0
 11
213.6039886474609091
 21
10.2665863037109393
 31
0.0
  0
LINE
  5
2D5
100
AcDbEntity
100
AcDbLine
  8
CADDY_2
 62
140
370
-1
  6
CONTINUOUS
 10
214.2787475585938068
 20
10.2665863037109393
 30
0.0
 11
216.2279815673828125
 21
10.2665863037109393
 31
0.0
  0
LINE
  5
2D6
100
AcDbEntity
100
AcDbLine
  8
CADDY_2
 62
140
370
-1
  6
CONTINUOUS
 10
216.9027252197265909
 20
10.2665863037109393
 30
0.0
 11
219.1518249511719034
 21
10.2665863037109393
 31
0.0
  0
LINE
  5
2D7
100
AcDbEntity
100
AcDbLine
  8
CADDY_2
 62
140
370
-1
  6
CONTINUOUS
 10
220.051513671875
 20
10.2665863037109393
 30
0.0
 11
220.5012969970703125
 21
10.2665863037109393
 31
0.0
  0
LINE
  5
2D8
100
AcDbEntity
100
AcDbLine
  8
CADDY_2
 62
140
370
-1
  6
CONTINUOUS
 10
221.1760711669921875
 20
10.2665863037109393
 30
0.0
 11
221.7758331298828125
 21
10.2665863037109393
 31
0.0
  0
LINE
  5
2D9
100
AcDbEntity
100
AcDbLine
  8
CADDY_2
 62
140
370
-1
  6
CONTINUOUS
 10
206.3318481445311932
 20
10.3694152832031197
 30
0.0
 11
207.3813934326171875
 21
10.3694152832031197
 31
0.0
  0
LINE
  5
2DA
100
AcDbEntity
100
AcDbLine
  8
CADDY_2
 62
140
370
-1
  6
CONTINUOUS
 10
208.5809326171875
 20
10.3694152832031197
 30
0.0
 11
209.0307769775390909
 21
10.3694152832031197
 31
0.0
  0
LINE
  5
2DB
100
AcDbEntity
100
AcDbLine
  8
CADDY_2
 62
140
370
-1
  6
CONTINUOUS
 10
211.3548431396484091
 20
10.3694152832031197
 30
0.0
 11
213.6039886474609091
 21
10.3694152832031197
 31
0.0
  0
LINE
  5
2DC
100
AcDbEntity
100
AcDbLine
  8
CADDY_2
 62
140
370
-1
  6
CONTINUOUS
 10
214.2787475585938068
 20
10.3694152832031197
 30
0.0
 11
216.2279815673828125
 21
10.3694152832031197
 31
0.0
  0
LINE
  5
2DD
100
AcDbEntity
100
AcDbLine
  8
CADDY_2
 62
140
370
-1
  6
CONTINUOUS
 10
216.9776763916015909
 20
10.3694152832031197
 30
0.0
 11
219.0768585205078125
 21
10.3694152832031197
 31
0.0
  0
LINE
  5
2DE
100
AcDbEntity
100
AcDbLine
  8
CADDY_2
 62
140
370
-1
  6
CONTINUOUS
 10
220.051513671875
 20
10.3694152832031197
 30
0.0
 11
220.5012969970703125
 21
10.3694152832031197
 31
0.0
  0
LINE
  5
2DF
100
AcDbEntity
100
AcDbLine
  8
CADDY_2
 62
140
370
-1
  6
CONTINUOUS
 10
221.1760711669921875
 20
10.3694152832031197
 30
0.0
 11
221.7758331298828125
 21
10.3694152832031197
 31
0.0
  0
LINE
  5
2E0
100
AcDbEntity
100
AcDbLine
  8
CADDY_2
 62
140
370
-1
  6
CONTINUOUS
 10
206.3318481445311932
 20
10.4722442626953107
 30
0.0
 11
207.3813934326171875
 21
10.4722442626953107
 31
0.0
  0
LINE
  5
2E1
100
AcDbEntity
100
AcDbLine
  8
CADDY_2
 62
140
370
-1
  6
CONTINUOUS
 10
208.5809326171875
 20
10.4722442626953107
 30
0.0
 11
209.0307769775390909
 21
10.4722442626953107
 31
0.0
  0
LINE
  5
2E2
100
AcDbEntity
100
AcDbLine
  8
CADDY_2
 62
140
370
-1
  6
CONTINUOUS
 10
211.3548431396484091
 20
10.4722442626953107
 30
0.0
 11
213.6789855957030966
 21
10.4722442626953107
 31
0.0
  0
LINE
  5
2E3
100
AcDbEntity
100
AcDbLine
  8
CADDY_2
 62
140
370
-1
  6
CONTINUOUS
 10
214.2787475585938068
 20
10.4722442626953107
 30
0.0
 11
216.2279815673828125
 21
10.4722442626953107
 31
0.0
  0
LINE
  5
2E4
100
AcDbEntity
100
AcDbLine
  8
CADDY_2
 62
140
370
-1
  6
CONTINUOUS
 10
216.9027252197265909
 20
10.4722442626953107
 30
0.0
 11
218.8519592285155966
 21
10.4722442626953107
 31
0.0
  0
LINE
  5
2E5
100
AcDbEntity
100
AcDbLine
  8
CADDY_2
 62
140
370
-1
  6
CONTINUOUS
 10
220.051513671875
 20
10.4722442626953107
 30
0.0
 11
220.5763092041015909
 21
10.4722442626953107
 31
0.0
  0
LINE
  5
2E6
100
AcDbEntity
100
AcDbLine
  8
CADDY_2
 62
140
370
-1
  6
CONTINUOUS
 10
221.1760711669921875
 20
10.4722442626953107
 30
0.0
 11
221.7008361816405966
 21
10.4722442626953107
 31
0.0
  0
LINE
  5
2E7
100
AcDbEntity
100
AcDbLine
  8
CADDY_2
 62
140
370
-1
  6
CONTINUOUS
 10
206.3318481445311932
 20
10.5750885009765607
 30
0.0
 11
207.3813934326171875
 21
10.5750885009765607
 31
0.0
  0
LINE
  5
2E8
100
AcDbEntity
100
AcDbLine
  8
CADDY_2
 62
140
370
-1
  6
CONTINUOUS
 10
208.5809326171875
 20
10.5750885009765607
 30
0.0
 11
209.0307769775390909
 21
10.5750885009765607
 31
0.0
  0
LINE
  5
2E9
100
AcDbEntity
100
AcDbLine
  8
CADDY_2
 62
140
370
-1
  6
CONTINUOUS
 10
211.3548431396484091
 20
10.5750885009765607
 30
0.0
 11
213.6789855957030966
 21
10.5750885009765607
 31
0.0
  0
LINE
  5
2EA
100
AcDbEntity
100
AcDbLine
  8
CADDY_2
 62
140
370
-1
  6
CONTINUOUS
 10
214.2787475585938068
 20
10.5750885009765607
 30
0.0
 11
216.2279815673828125
 21
10.5750885009765607
 31
0.0
  0
LINE
  5
2EB
100
AcDbEntity
100
AcDbLine
  8
CADDY_2
 62
140
370
-1
  6
CONTINUOUS
 10
216.9027252197265909
 20
10.5750885009765607
 30
0.0
 11
218.7769927978515909
 21
10.5750885009765607
 31
0.0
  0
LINE
  5
2EC
100
AcDbEntity
100
AcDbLine
  8
CADDY_2
 62
140
370
-1
  6
CONTINUOUS
 10
220.1264801025390909
 20
10.5750885009765607
 30
0.0
 11
220.6512451171875
 21
10.5750885009765607
 31
0.0
  0
LINE
  5
2ED
100
AcDbEntity
100
AcDbLine
  8
CADDY_2
 62
140
370
-1
  6
CONTINUOUS
 10
221.1760711669921875
 20
10.5750885009765607
 30
0.0
 11
221.7008361816405966
 21
10.5750885009765607
 31
0.0
  0
LINE
  5
2EE
100
AcDbEntity
100
AcDbLine
  8
CADDY_2
 62
140
370
-1
  6
CONTINUOUS
 10
206.3318481445311932
 20
10.67791748046875
 30
0.0
 11
207.3064575195311932
 21
10.67791748046875
 31
0.0
  0
LINE
  5
2EF
100
AcDbEntity
100
AcDbLine
  8
CADDY_2
 62
140
370
-1
  6
CONTINUOUS
 10
208.5809326171875
 20
10.67791748046875
 30
0.0
 11
209.0307769775390909
 21
10.67791748046875
 31
0.0
  0
LINE
  5
2F0
100
AcDbEntity
100
AcDbLine
  8
CADDY_2
 62
140
370
-1
  6
CONTINUOUS
 10
211.3548431396484091
 20
10.67791748046875
 30
0.0
 11
213.6789855957030966
 21
10.67791748046875
 31
0.0
  0
LINE
  5
2F1
100
AcDbEntity
100
AcDbLine
  8
CADDY_2
 62
140
370
-1
  6
CONTINUOUS
 10
214.2787475585938068
 20
10.67791748046875
 30
0.0
 11
216.2279815673828125
 21
10.67791748046875
 31
0.0
  0
LINE
  5
2F2
100
AcDbEntity
100
AcDbLine
  8
CADDY_2
 62
140
370
-1
  6
CONTINUOUS
 10
216.9027252197265909
 20
10.67791748046875
 30
0.0
 11
218.9269256591796875
 21
10.67791748046875
 31
0.0
  0
LINE
  5
2F3
100
AcDbEntity
100
AcDbLine
  8
CADDY_2
 62
140
370
-1
  6
CONTINUOUS
 10
220.2014465332030966
 20
10.67791748046875
 30
0.0
 11
220.6512451171875
 21
10.67791748046875
 31
0.0
  0
LINE
  5
2F4
100
AcDbEntity
100
AcDbLine
  8
CADDY_2
 62
140
370
-1
  6
CONTINUOUS
 10
221.10107421875
 20
10.67791748046875
 30
0.0
 11
221.7008361816405966
 21
10.67791748046875
 31
0.0
  0
LINE
  5
2F5
100
AcDbEntity
100
AcDbLine
  8
CADDY_2
 62
140
370
-1
  6
CONTINUOUS
 10
206.3318481445311932
 20
10.78076171875
 30
0.0
 11
207.3064575195311932
 21
10.78076171875
 31
0.0
  0
LINE
  5
2F6
100
AcDbEntity
100
AcDbLine
  8
CADDY_2
 62
140
370
-1
  6
CONTINUOUS
 10
208.5809326171875
 20
10.78076171875
 30
0.0
 11
209.0307769775390909
 21
10.78076171875
 31
0.0
  0
LINE
  5
2F7
100
AcDbEntity
100
AcDbLine
  8
CADDY_2
 62
140
370
-1
  6
CONTINUOUS
 10
211.3548431396484091
 20
10.78076171875
 30
0.0
 11
211.8796844482421875
 21
10.78076171875
 31
0.0
  0
LINE
  5
2F8
100
AcDbEntity
100
AcDbLine
  8
CADDY_2
 62
140
370
-1
  6
CONTINUOUS
 10
212.1795501708984091
 20
10.78076171875
 30
0.0
 11
213.6789855957030966
 21
10.78076171875
 31
0.0
  0
LINE
  5
2F9
100
AcDbEntity
100
AcDbLine
  8
CADDY_2
 62
140
370
-1
  6
CONTINUOUS
 10
214.2787475585938068
 20
10.78076171875
 30
0.0
 11
214.8035278320311932
 21
10.78076171875
 31
0.0
  0
LINE
  5
2FA
100
AcDbEntity
100
AcDbLine
  8
CADDY_2
 62
140
370
-1
  6
CONTINUOUS
 10
215.0284423828125
 20
10.78076171875
 30
0.0
 11
216.2279815673828125
 21
10.78076171875
 31
0.0
  0
LINE
  5
2FB
100
AcDbEntity
100
AcDbLine
  8
CADDY_2
 62
140
370
-1
  6
CONTINUOUS
 10
216.9027252197265909
 20
10.78076171875
 30
0.0
 11
217.4275054931640909
 21
10.78076171875
 31
0.0
  0
LINE
  5
2FC
100
AcDbEntity
100
AcDbLine
  8
CADDY_2
 62
140
370
-1
  6
CONTINUOUS
 10
217.6524505615234091
 20
10.78076171875
 30
0.0
 11
218.9269256591796875
 21
10.78076171875
 31
0.0
  0
LINE
  5
2FD
100
AcDbEntity
100
AcDbLine
  8
CADDY_2
 62
140
370
-1
  6
CONTINUOUS
 10
220.2014465332030966
 20
10.78076171875
 30
0.0
 11
220.6512451171875
 21
10.78076171875
 31
0.0
  0
LINE
  5
2FE
100
AcDbEntity
100
AcDbLine
  8
CADDY_2
 62
140
370
-1
  6
CONTINUOUS
 10
221.0261383056640909
 20
10.78076171875
 30
0.0
 11
221.6258850097655966
 21
10.78076171875
 31
0.0
  0
LINE
  5
2FF
100
AcDbEntity
100
AcDbLine
  8
CADDY_2
 62
140
370
-1
  6
CONTINUOUS
 10
206.3318481445311932
 20
10.8835906982421893
 30
0.0
 11
207.3064575195311932
 21
10.8835906982421893
 31
0.0
  0
LINE
  5
300
100
AcDbEntity
100
AcDbLine
  8
CADDY_2
 62
140
370
-1
  6
CONTINUOUS
 10
208.5809326171875
 20
10.8835906982421893
 30
0.0
 11
209.1057739257811932
 21
10.8835906982421893
 31
0.0
  0
LINE
  5
301
100
AcDbEntity
100
AcDbLine
  8
CADDY_2
 62
140
370
-1
  6
CONTINUOUS
 10
211.3548431396484091
 20
10.8835906982421893
 30
0.0
 11
211.8796844482421875
 21
10.8835906982421893
 31
0.0
  0
LINE
  5
302
100
AcDbEntity
100
AcDbLine
  8
CADDY_2
 62
140
370
-1
  6
CONTINUOUS
 10
213.1541595458984091
 20
10.8835906982421893
 30
0.0
 11
213.6789855957030966
 21
10.8835906982421893
 31
0.0
  0
LINE
  5
303
100
AcDbEntity
100
AcDbLine
  8
CADDY_2
 62
140
370
-1
  6
CONTINUOUS
 10
214.2787475585938068
 20
10.8835906982421893
 30
0.0
 11
214.8035278320311932
 21
10.8835906982421893
 31
0.0
  0
LINE
  5
304
100
AcDbEntity
100
AcDbLine
  8
CADDY_2
 62
140
370
-1
  6
CONTINUOUS
 10
216.9027252197265909
 20
10.8835906982421893
 30
0.0
 11
217.4275054931640909
 21
10.8835906982421893
 31
0.0
  0
LINE
  5
305
100
AcDbEntity
100
AcDbLine
  8
CADDY_2
 62
140
370
-1
  6
CONTINUOUS
 10
218.6270599365234091
 20
10.8835906982421893
 30
0.0
 11
219.0768585205078125
 21
10.8835906982421893
 31
0.0
  0
LINE
  5
306
100
AcDbEntity
100
AcDbLine
  8
CADDY_2
 62
140
370
-1
  6
CONTINUOUS
 10
220.2014465332030966
 20
10.8835906982421893
 30
0.0
 11
220.7262268066405966
 21
10.8835906982421893
 31
0.0
  0
LINE
  5
307
100
AcDbEntity
100
AcDbLine
  8
CADDY_2
 62
140
370
-1
  6
CONTINUOUS
 10
221.0261383056640909
 20
10.8835906982421893
 30
0.0
 11
221.5509033203125
 21
10.8835906982421893
 31
0.0
  0
LINE
  5
308
100
AcDbEntity
100
AcDbLine
  8
CADDY_2
 62
140
370
-1
  6
CONTINUOUS
 10
206.2568511962890909
 20
10.9864349365234393
 30
0.0
 11
207.3064575195311932
 21
10.9864349365234393
 31
0.0
  0
LINE
  5
309
100
AcDbEntity
100
AcDbLine
  8
CADDY_2
 62
140
370
-1
  6
CONTINUOUS
 10
208.6559295654296875
 20
10.9864349365234393
 30
0.0
 11
209.1807098388671875
 21
10.9864349365234393
 31
0.0
  0
LINE
  5
30A
100
AcDbEntity
100
AcDbLine
  8
CADDY_2
 62
140
370
-1
  6
CONTINUOUS
 10
210.9050598144530966
 20
10.9864349365234393
 30
0.0
 11
210.9050598144530966
 21
10.9864349365234393
 31
0.0
  0
LINE
  5
30B
100
AcDbEntity
100
AcDbLine
  8
CADDY_2
 62
140
370
-1
  6
CONTINUOUS
 10
211.3548431396484091
 20
10.9864349365234393
 30
0.0
 11
211.8796844482421875
 21
10.9864349365234393
 31
0.0
  0
LINE
  5
30C
100
AcDbEntity
100
AcDbLine
  8
CADDY_2
 62
140
370
-1
  6
CONTINUOUS
 10
213.1541595458984091
 20
10.9864349365234393
 30
0.0
 11
213.6789855957030966
 21
10.9864349365234393
 31
0.0
  0
LINE
  5
30D
100
AcDbEntity
100
AcDbLine
  8
CADDY_2
 62
140
370
-1
  6
CONTINUOUS
 10
214.2787475585938068
 20
10.9864349365234393
 30
0.0
 11
214.8035278320311932
 21
10.9864349365234393
 31
0.0
  0
LINE
  5
30E
100
AcDbEntity
100
AcDbLine
  8
CADDY_2
 62
140
370
-1
  6
CONTINUOUS
 10
216.9027252197265909
 20
10.9864349365234393
 30
0.0
 11
217.4275054931640909
 21
10.9864349365234393
 31
0.0
  0
LINE
  5
30F
100
AcDbEntity
100
AcDbLine
  8
CADDY_2
 62
140
370
-1
  6
CONTINUOUS
 10
218.6270599365234091
 20
10.9864349365234393
 30
0.0
 11
219.0768585205078125
 21
10.9864349365234393
 31
0.0
  0
LINE
  5
310
100
AcDbEntity
100
AcDbLine
  8
CADDY_2
 62
140
370
-1
  6
CONTINUOUS
 10
220.2764129638671875
 20
10.9864349365234393
 30
0.0
 11
220.8011932373046875
 21
10.9864349365234393
 31
0.0
  0
LINE
  5
311
100
AcDbEntity
100
AcDbLine
  8
CADDY_2
 62
140
370
-1
  6
CONTINUOUS
 10
221.0261383056640909
 20
10.9864349365234393
 30
0.0
 11
221.5509033203125
 21
10.9864349365234393
 31
0.0
  0
LINE
  5
312
100
AcDbEntity
100
AcDbLine
  8
CADDY_2
 62
140
370
-1
  6
CONTINUOUS
 10
206.2568511962890909
 20
11.0892639160156197
 30
0.0
 11
207.3064575195311932
 21
11.0892639160156197
 31
0.0
  0
LINE
  5
313
100
AcDbEntity
100
AcDbLine
  8
CADDY_2
 62
140
370
-1
  6
CONTINUOUS
 10
208.6559295654296875
 20
11.0892639160156197
 30
0.0
 11
209.2557067871094034
 21
11.0892639160156197
 31
0.0
  0
LINE
  5
314
100
AcDbEntity
100
AcDbLine
  8
CADDY_2
 62
140
370
-1
  6
CONTINUOUS
 10
210.830078125
 20
11.0892639160156197
 30
0.0
 11
210.9050598144530966
 21
11.0892639160156197
 31
0.0
  0
LINE
  5
315
100
AcDbEntity
100
AcDbLine
  8
CADDY_2
 62
140
370
-1
  6
CONTINUOUS
 10
211.3548431396484091
 20
11.0892639160156197
 30
0.0
 11
211.8796844482421875
 21
11.0892639160156197
 31
0.0
  0
LINE
  5
316
100
AcDbEntity
100
AcDbLine
  8
CADDY_2
 62
140
370
-1
  6
CONTINUOUS
 10
213.1541595458984091
 20
11.0892639160156197
 30
0.0
 11
213.6789855957030966
 21
11.0892639160156197
 31
0.0
  0
LINE
  5
317
100
AcDbEntity
100
AcDbLine
  8
CADDY_2
 62
140
370
-1
  6
CONTINUOUS
 10
214.2787475585938068
 20
11.0892639160156197
 30
0.0
 11
214.8035278320311932
 21
11.0892639160156197
 31
0.0
  0
LINE
  5
318
100
AcDbEntity
100
AcDbLine
  8
CADDY_2
 62
140
370
-1
  6
CONTINUOUS
 10
216.9027252197265909
 20
11.0892639160156197
 30
0.0
 11
217.4275054931640909
 21
11.0892639160156197
 31
0.0
  0
LINE
  5
319
100
AcDbEntity
100
AcDbLine
  8
CADDY_2
 62
140
370
-1
  6
CONTINUOUS
 10
218.7019958496094034
 20
11.0892639160156197
 30
0.0
 11
219.0768585205078125
 21
11.0892639160156197
 31
0.0
  0
LINE
  5
31A
100
AcDbEntity
100
AcDbLine
  8
CADDY_2
 62
140
370
-1
  6
CONTINUOUS
 10
220.3513641357421875
 20
11.0892639160156197
 30
0.0
 11
220.8011932373046875
 21
11.0892639160156197
 31
0.0
  0
LINE
  5
31B
100
AcDbEntity
100
AcDbLine
  8
CADDY_2
 62
140
370
-1
  6
CONTINUOUS
 10
220.9511413574219034
 20
11.0892639160156197
 30
0.0
 11
221.4759216308594034
 21
11.0892639160156197
 31
0.0
  0
LINE
  5
31C
100
AcDbEntity
100
AcDbLine
  8
CADDY_2
 62
140
370
-1
  6
CONTINUOUS
 10
206.1818695068359091
 20
11.1921081542968803
 30
0.0
 11
207.2314758300780966
 21
11.1921081542968803
 31
0.0
  0
LINE
  5
31D
100
AcDbEntity
100
AcDbLine
  8
CADDY_2
 62
140
370
-1
  6
CONTINUOUS
 10
208.7308959960938068
 20
11.1921081542968803
 30
0.0
 11
209.4056396484375
 21
11.1921081542968803
 31
0.0
  0
LINE
  5
31E
100
AcDbEntity
100
AcDbLine
  8
CADDY_2
 62
140
370
-1
  6
CONTINUOUS
 10
210.6051635742188068
 20
11.1921081542968803
 30
0.0
 11
210.9050598144530966
 21
11.1921081542968803
 31
0.0
  0
LINE
  5
31F
100
AcDbEntity
100
AcDbLine
  8
CADDY_2
 62
140
370
-1
  6
CONTINUOUS
 10
211.3548431396484091
 20
11.1921081542968803
 30
0.0
 11
211.8796844482421875
 21
11.1921081542968803
 31
0.0
  0
LINE
  5
320
100
AcDbEntity
100
AcDbLine
  8
CADDY_2
 62
140
370
-1
  6
CONTINUOUS
 10
213.1541595458984091
 20
11.1921081542968803
 30
0.0
 11
213.6789855957030966
 21
11.1921081542968803
 31
0.0
  0
LINE
  5
321
100
AcDbEntity
100
AcDbLine
  8
CADDY_2
 62
140
370
-1
  6
CONTINUOUS
 10
214.2787475585938068
 20
11.1921081542968803
 30
0.0
 11
214.8035278320311932
 21
11.1921081542968803
 31
0.0
  0
LINE
  5
322
100
AcDbEntity
100
AcDbLine
  8
CADDY_2
 62
140
370
-1
  6
CONTINUOUS
 10
216.9027252197265909
 20
11.1921081542968803
 30
0.0
 11
217.4275054931640909
 21
11.1921081542968803
 31
0.0
  0
LINE
  5
323
100
AcDbEntity
100
AcDbLine
  8
CADDY_2
 62
140
370
-1
  6
CONTINUOUS
 10
218.6270599365234091
 20
11.1921081542968803
 30
0.0
 11
219.0768585205078125
 21
11.1921081542968803
 31
0.0
  0
LINE
  5
324
100
AcDbEntity
100
AcDbLine
  8
CADDY_2
 62
140
370
-1
  6
CONTINUOUS
 10
220.3513641357421875
 20
11.1921081542968803
 30
0.0
 11
221.4759216308594034
 21
11.1921081542968803
 31
0.0
  0
LINE
  5
325
100
AcDbEntity
100
AcDbLine
  8
CADDY_2
 62
140
370
-1
  6
CONTINUOUS
 10
206.1069030761719034
 20
11.2949371337890607
 30
0.0
 11
207.156494140625
 21
11.2949371337890607
 31
0.0
  0
LINE
  5
326
100
AcDbEntity
100
AcDbLine
  8
CADDY_2
 62
140
370
-1
  6
CONTINUOUS
 10
208.7308959960938068
 20
11.2949371337890607
 30
0.0
 11
209.5555572509765909
 21
11.2949371337890607
 31
0.0
  0
LINE
  5
327
100
AcDbEntity
100
AcDbLine
  8
CADDY_2
 62
140
370
-1
  6
CONTINUOUS
 10
210.4552307128905966
 20
11.2949371337890607
 30
0.0
 11
210.9050598144530966
 21
11.2949371337890607
 31
0.0
  0
LINE
  5
328
100
AcDbEntity
100
AcDbLine
  8
CADDY_2
 62
140
370
-1
  6
CONTINUOUS
 10
211.3548431396484091
 20
11.2949371337890607
 30
0.0
 11
211.8796844482421875
 21
11.2949371337890607
 31
0.0
  0
LINE
  5
329
100
AcDbEntity
100
AcDbLine
  8
CADDY_2
 62
140
370
-1
  6
CONTINUOUS
 10
213.1541595458984091
 20
11.2949371337890607
 30
0.0
 11
213.6789855957030966
 21
11.2949371337890607
 31
0.0
  0
LINE
  5
32A
100
AcDbEntity
100
AcDbLine
  8
CADDY_2
 62
140
370
-1
  6
CONTINUOUS
 10
214.2787475585938068
 20
11.2949371337890607
 30
0.0
 11
214.8035278320311932
 21
11.2949371337890607
 31
0.0
  0
LINE
  5
32B
100
AcDbEntity
100
AcDbLine
  8
CADDY_2
 62
140
370
-1
  6
CONTINUOUS
 10
216.9027252197265909
 20
11.2949371337890607
 30
0.0
 11
217.4275054931640909
 21
11.2949371337890607
 31
0.0
  0
LINE
  5
32C
100
AcDbEntity
100
AcDbLine
  8
CADDY_2
 62
140
370
-1
  6
CONTINUOUS
 10
218.6270599365234091
 20
11.2949371337890607
 30
0.0
 11
219.0768585205078125
 21
11.2949371337890607
 31
0.0
  0
LINE
  5
32D
100
AcDbEntity
100
AcDbLine
  8
CADDY_2
 62
140
370
-1
  6
CONTINUOUS
 10
220.3513641357421875
 20
11.2949371337890607
 30
0.0
 11
221.4759216308594034
 21
11.2949371337890607
 31
0.0
  0
LINE
  5
32E
100
AcDbEntity
100
AcDbLine
  8
CADDY_2
 62
140
370
-1
  6
CONTINUOUS
 10
205.9569396972655966
 20
11.39776611328125
 30
0.0
 11
207.156494140625
 21
11.39776611328125
 31
0.0
  0
LINE
  5
32F
100
AcDbEntity
100
AcDbLine
  8
CADDY_2
 62
140
370
-1
  6
CONTINUOUS
 10
208.8058624267578125
 20
11.39776611328125
 30
0.0
 11
210.9050598144530966
 21
11.39776611328125
 31
0.0
  0
LINE
  5
330
100
AcDbEntity
100
AcDbLine
  8
CADDY_2
 62
140
370
-1
  6
CONTINUOUS
 10
211.3548431396484091
 20
11.39776611328125
 30
0.0
 11
211.8796844482421875
 21
11.39776611328125
 31
0.0
  0
LINE
  5
331
100
AcDbEntity
100
AcDbLine
  8
CADDY_2
 62
140
370
-1
  6
CONTINUOUS
 10
213.1541595458984091
 20
11.39776611328125
 30
0.0
 11
213.6039886474609091
 21
11.39776611328125
 31
0.0
  0
LINE
  5
332
100
AcDbEntity
100
AcDbLine
  8
CADDY_2
 62
140
370
-1
  6
CONTINUOUS
 10
214.2787475585938068
 20
11.39776611328125
 30
0.0
 11
214.9534759521484091
 21
11.39776611328125
 31
0.0
  0
LINE
  5
333
100
AcDbEntity
100
AcDbLine
  8
CADDY_2
 62
140
370
-1
  6
CONTINUOUS
 10
216.9027252197265909
 20
11.39776611328125
 30
0.0
 11
217.4275054931640909
 21
11.39776611328125
 31
0.0
  0
LINE
  5
334
100
AcDbEntity
100
AcDbLine
  8
CADDY_2
 62
140
370
-1
  6
CONTINUOUS
 10
218.4770965576171875
 20
11.39776611328125
 30
0.0
 11
219.0768585205078125
 21
11.39776611328125
 31
0.0
  0
LINE
  5
335
100
AcDbEntity
100
AcDbLine
  8
CADDY_2
 62
140
370
-1
  6
CONTINUOUS
 10
220.4263763427734091
 20
11.39776611328125
 30
0.0
 11
221.4009704589844034
 21
11.39776611328125
 31
0.0
  0
LINE
  5
336
100
AcDbEntity
100
AcDbLine
  8
CADDY_2
 62
140
370
-1
  6
CONTINUOUS
 10
205.8820190429688068
 20
11.5006103515625
 30
0.0
 11
207.0815277099609091
 21
11.5006103515625
 31
0.0
  0
LINE
  5
337
100
AcDbEntity
100
AcDbLine
  8
CADDY_2
 62
140
370
-1
  6
CONTINUOUS
 10
208.8808441162109091
 20
11.5006103515625
 30
0.0
 11
210.9050598144530966
 21
11.5006103515625
 31
0.0
  0
LINE
  5
338
100
AcDbEntity
100
AcDbLine
  8
CADDY_2
 62
140
370
-1
  6
CONTINUOUS
 10
211.3548431396484091
 20
11.5006103515625
 30
0.0
 11
211.8796844482421875
 21
11.5006103515625
 31
0.0
  0
LINE
  5
339
100
AcDbEntity
100
AcDbLine
  8
CADDY_2
 62
140
370
-1
  6
CONTINUOUS
 10
213.1541595458984091
 20
11.5006103515625
 30
0.0
 11
213.6789855957030966
 21
11.5006103515625
 31
0.0
  0
LINE
  5
33A
100
AcDbEntity
100
AcDbLine
  8
CADDY_2
 62
140
370
-1
  6
CONTINUOUS
 10
214.2787475585938068
 20
11.5006103515625
 30
0.0
 11
216.3029479980469034
 21
11.5006103515625
 31
0.0
  0
LINE
  5
33B
100
AcDbEntity
100
AcDbLine
  8
CADDY_2
 62
140
370
-1
  6
CONTINUOUS
 10
216.9027252197265909
 20
11.5006103515625
 30
0.0
 11
219.0768585205078125
 21
11.5006103515625
 31
0.0
  0
LINE
  5
33C
100
AcDbEntity
100
AcDbLine
  8
CADDY_2
 62
140
370
-1
  6
CONTINUOUS
 10
220.5012969970703125
 20
11.5006103515625
 30
0.0
 11
221.3259887695311932
 21
11.5006103515625
 31
0.0
  0
LINE
  5
33D
100
AcDbEntity
100
AcDbLine
  8
CADDY_2
 62
140
370
-1
  6
CONTINUOUS
 10
205.6570892333984091
 20
11.60345458984375
 30
0.0
 11
207.0815277099609091
 21
11.60345458984375
 31
0.0
  0
LINE
  5
33E
100
AcDbEntity
100
AcDbLine
  8
CADDY_2
 62
140
370
-1
  6
CONTINUOUS
 10
208.955810546875
 20
11.60345458984375
 30
0.0
 11
210.9050598144530966
 21
11.60345458984375
 31
0.0
  0
LINE
  5
33F
100
AcDbEntity
100
AcDbLine
  8
CADDY_2
 62
140
370
-1
  6
CONTINUOUS
 10
211.3548431396484091
 20
11.60345458984375
 30
0.0
 11
211.8796844482421875
 21
11.60345458984375
 31
0.0
  0
LINE
  5
340
100
AcDbEntity
100
AcDbLine
  8
CADDY_2
 62
140
370
-1
  6
CONTINUOUS
 10
213.1541595458984091
 20
11.60345458984375
 30
0.0
 11
213.6789855957030966
 21
11.60345458984375
 31
0.0
  0
LINE
  5
341
100
AcDbEntity
100
AcDbLine
  8
CADDY_2
 62
140
370
-1
  6
CONTINUOUS
 10
214.2787475585938068
 20
11.60345458984375
 30
0.0
 11
216.3779144287109091
 21
11.60345458984375
 31
0.0
  0
LINE
  5
342
100
AcDbEntity
100
AcDbLine
  8
CADDY_2
 62
140
370
-1
  6
CONTINUOUS
 10
216.9776763916015909
 20
11.60345458984375
 30
0.0
 11
219.0018920898438068
 21
11.60345458984375
 31
0.0
  0
LINE
  5
343
100
AcDbEntity
100
AcDbLine
  8
CADDY_2
 62
140
370
-1
  6
CONTINUOUS
 10
220.5012969970703125
 20
11.60345458984375
 30
0.0
 11
221.3259887695311932
 21
11.60345458984375
 31
0.0
  0
LINE
  5
344
100
AcDbEntity
100
AcDbLine
  8
CADDY_2
 62
140
370
-1
  6
CONTINUOUS
 10
205.357177734375
 20
11.7062835693359393
 30
0.0
 11
207.0065460205078125
 21
11.7062835693359393
 31
0.0
  0
LINE
  5
345
100
AcDbEntity
100
AcDbLine
  8
CADDY_2
 62
140
370
-1
  6
CONTINUOUS
 10
209.1057739257811932
 20
11.7062835693359393
 30
0.0
 11
210.7550964355469034
 21
11.7062835693359393
 31
0.0
  0
LINE
  5
346
100
AcDbEntity
100
AcDbLine
  8
CADDY_2
 62
140
370
-1
  6
CONTINUOUS
 10
211.3548431396484091
 20
11.7062835693359393
 30
0.0
 11
211.8796844482421875
 21
11.7062835693359393
 31
0.0
  0
LINE
  5
347
100
AcDbEntity
100
AcDbLine
  8
CADDY_2
 62
140
370
-1
  6
CONTINUOUS
 10
213.1541595458984091
 20
11.7062835693359393
 30
0.0
 11
213.6789855957030966
 21
11.7062835693359393
 31
0.0
  0
LINE
  5
348
100
AcDbEntity
100
AcDbLine
  8
CADDY_2
 62
140
370
-1
  6
CONTINUOUS
 10
214.2787475585938068
 20
11.7062835693359393
 30
0.0
 11
216.3779144287109091
 21
11.7062835693359393
 31
0.0
  0
LINE
  5
349
100
AcDbEntity
100
AcDbLine
  8
CADDY_2
 62
140
370
-1
  6
CONTINUOUS
 10
216.9027252197265909
 20
11.7062835693359393
 30
0.0
 11
218.9269256591796875
 21
11.7062835693359393
 31
0.0
  0
LINE
  5
34A
100
AcDbEntity
100
AcDbLine
  8
CADDY_2
 62
140
370
-1
  6
CONTINUOUS
 10
220.5763092041015909
 20
11.7062835693359393
 30
0.0
 11
221.2510223388671875
 21
11.7062835693359393
 31
0.0
  0
LINE
  5
34B
100
AcDbEntity
100
AcDbLine
  8
CADDY_2
 62
140
370
-1
  6
CONTINUOUS
 10
205.2072448730469034
 20
11.8091125488281197
 30
0.0
 11
206.9316101074219034
 21
11.8091125488281197
 31
0.0
  0
LINE
  5
34C
100
AcDbEntity
100
AcDbLine
  8
CADDY_2
 62
140
370
-1
  6
CONTINUOUS
 10
209.2557067871094034
 20
11.8091125488281197
 30
0.0
 11
210.6801452636719034
 21
11.8091125488281197
 31
0.0
  0
LINE
  5
34D
100
AcDbEntity
100
AcDbLine
  8
CADDY_2
 62
140
370
-1
  6
CONTINUOUS
 10
211.3548431396484091
 20
11.8091125488281197
 30
0.0
 11
211.9546203613280966
 21
11.8091125488281197
 31
0.0
  0
LINE
  5
34E
100
AcDbEntity
100
AcDbLine
  8
CADDY_2
 62
140
370
-1
  6
CONTINUOUS
 10
213.1541595458984091
 20
11.8091125488281197
 30
0.0
 11
213.6789855957030966
 21
11.8091125488281197
 31
0.0
  0
LINE
  5
34F
100
AcDbEntity
100
AcDbLine
  8
CADDY_2
 62
140
370
-1
  6
CONTINUOUS
 10
214.2787475585938068
 20
11.8091125488281197
 30
0.0
 11
216.3779144287109091
 21
11.8091125488281197
 31
0.0
  0
LINE
  5
350
100
AcDbEntity
100
AcDbLine
  8
CADDY_2
 62
140
370
-1
  6
CONTINUOUS
 10
216.9027252197265909
 20
11.8091125488281197
 30
0.0
 11
218.7769927978515909
 21
11.8091125488281197
 31
0.0
  0
LINE
  5
351
100
AcDbEntity
100
AcDbLine
  8
CADDY_2
 62
140
370
-1
  6
CONTINUOUS
 10
220.5763092041015909
 20
11.8091125488281197
 30
0.0
 11
221.2510223388671875
 21
11.8091125488281197
 31
0.0
  0
LINE
  5
352
100
AcDbEntity
100
AcDbLine
  8
CADDY_2
 62
140
370
-1
  6
CONTINUOUS
 10
204.8324127197265909
 20
11.9119567871093803
 30
0.0
 11
206.8566131591796875
 21
11.9119567871093803
 31
0.0
  0
LINE
  5
353
100
AcDbEntity
100
AcDbLine
  8
CADDY_2
 62
140
370
-1
  6
CONTINUOUS
 10
209.6305236816405966
 20
11.9119567871093803
 30
0.0
 11
210.3052978515625
 21
11.9119567871093803
 31
0.0
  0
LINE
  5
354
100
AcDbEntity
100
AcDbLine
  8
CADDY_2
 62
140
370
-1
  6
CONTINUOUS
 10
211.3548431396484091
 20
11.9119567871093803
 30
0.0
 11
211.9546203613280966
 21
11.9119567871093803
 31
0.0
  0
LINE
  5
355
100
AcDbEntity
100
AcDbLine
  8
CADDY_2
 62
140
370
-1
  6
CONTINUOUS
 10
213.1541595458984091
 20
11.9119567871093803
 30
0.0
 11
213.6789855957030966
 21
11.9119567871093803
 31
0.0
  0
LINE
  5
356
100
AcDbEntity
100
AcDbLine
  8
CADDY_2
 62
140
370
-1
  6
CONTINUOUS
 10
214.2787475585938068
 20
11.9119567871093803
 30
0.0
 11
216.3779144287109091
 21
11.9119567871093803
 31
0.0
  0
LINE
  5
357
100
AcDbEntity
100
AcDbLine
  8
CADDY_2
 62
140
370
-1
  6
CONTINUOUS
 10
216.9776763916015909
 20
11.9119567871093803
 30
0.0
 11
218.5520629882811932
 21
11.9119567871093803
 31
0.0
  0
LINE
  5
358
100
AcDbEntity
100
AcDbLine
  8
CADDY_2
 62
140
370
-1
  6
CONTINUOUS
 10
220.5763092041015909
 20
11.9119567871093803
 30
0.0
 11
221.1760711669921875
 21
11.9119567871093803
 31
0.0
  0
LINE
  5
359
100
AcDbEntity
100
AcDbLine
  8
CADDY_2
 62
140
370
-1
  6
CONTINUOUS
 10
204.5325469970703125
 20
12.0147857666015607
 30
0.0
 11
206.7816467285155966
 21
12.0147857666015607
 31
0.0
  0
LINE
  5
35A
100
AcDbEntity
100
AcDbLine
  8
CADDY_2
 62
140
370
-1
  6
CONTINUOUS
 10
203.4829254150390909
 20
12.1176300048828107
 30
0.0
 11
206.7066802978515909
 21
12.1176300048828107
 31
0.0
  0
LINE
  5
35B
100
AcDbEntity
100
AcDbLine
  8
CADDY_2
 62
140
370
-1
  6
CONTINUOUS
 10
202.7332153320311932
 20
12.220458984375
 30
0.0
 11
206.6317138671875
 21
12.220458984375
 31
0.0
  0
LINE
  5
35C
100
AcDbEntity
100
AcDbLine
  8
CADDY_2
 62
140
370
-1
  6
CONTINUOUS
 10
201.4587249755859091
 20
12.32330322265625
 30
0.0
 11
206.4817810058594034
 21
12.32330322265625
 31
0.0
  0
LINE
  5
35D
100
AcDbEntity
100
AcDbLine
  8
CADDY_2
 62
140
370
-1
  6
CONTINUOUS
 10
201.0838623046875
 20
12.4261322021484393
 30
0.0
 11
206.4067840576171875
 21
12.4261322021484393
 31
0.0
  0
LINE
  5
35E
100
AcDbEntity
100
AcDbLine
  8
CADDY_2
 62
140
370
-1
  6
CONTINUOUS
 10
200.7839813232421875
 20
12.5289764404296893
 30
0.0
 11
206.2568511962890909
 21
12.5289764404296893
 31
0.0
  0
LINE
  5
35F
100
AcDbEntity
100
AcDbLine
  8
CADDY_2
 62
140
370
-1
  6
CONTINUOUS
 10
200.55908203125
 20
12.6318054199218803
 30
0.0
 11
206.1069030761719034
 21
12.6318054199218803
 31
0.0
  0
LINE
  5
360
100
AcDbEntity
100
AcDbLine
  8
CADDY_2
 62
140
370
-1
  6
CONTINUOUS
 10
200.4840850830078125
 20
12.7346343994140607
 30
0.0
 11
205.9569396972655966
 21
12.7346343994140607
 31
0.0
  0
LINE
  5
361
100
AcDbEntity
100
AcDbLine
  8
CADDY_2
 62
140
370
-1
  6
CONTINUOUS
 10
200.3341522216796875
 20
12.8374786376953107
 30
0.0
 11
205.7320861816405966
 21
12.8374786376953107
 31
0.0
  0
LINE
  5
362
100
AcDbEntity
100
AcDbLine
  8
CADDY_2
 62
140
370
-1
  6
CONTINUOUS
 10
200.2591857910155966
 20
12.9403076171875
 30
0.0
 11
205.5821228027344034
 21
12.9403076171875
 31
0.0
  0
LINE
  5
363
100
AcDbEntity
100
AcDbLine
  8
CADDY_2
 62
140
370
-1
  6
CONTINUOUS
 10
200.1092376708984091
 20
13.04315185546875
 30
0.0
 11
205.2072448730469034
 21
13.04315185546875
 31
0.0
  0
LINE
  5
364
100
AcDbEntity
100
AcDbLine
  8
CADDY_2
 62
140
370
-1
  6
CONTINUOUS
 10
200.0342407226561932
 20
13.1459808349609393
 30
0.0
 11
204.9823455810546875
 21
13.1459808349609393
 31
0.0
  0
LINE
  5
365
100
AcDbEntity
100
AcDbLine
  8
CADDY_2
 62
140
370
-1
  6
CONTINUOUS
 10
199.9593048095703125
 20
13.2488250732421893
 30
0.0
 11
204.6074829101561932
 21
13.2488250732421893
 31
0.0
  0
LINE
  5
366
100
AcDbEntity
100
AcDbLine
  8
CADDY_2
 62
140
370
-1
  6
CONTINUOUS
 10
199.8843078613280966
 20
13.3516540527343803
 30
0.0
 11
203.5578918457030966
 21
13.3516540527343803
 31
0.0
  0
LINE
  5
367
100
AcDbEntity
100
AcDbLine
  8
CADDY_2
 62
140
370
-1
  6
CONTINUOUS
 10
199.8843078613280966
 20
13.4544982910156197
 30
0.0
 11
202.8831634521484091
 21
13.4544982910156197
 31
0.0
  0
LINE
  5
368
100
AcDbEntity
100
AcDbLine
  8
CADDY_2
 62
140
370
-1
  6
CONTINUOUS
 10
199.7344055175780966
 20
13.5573272705078107
 30
0.0
 11
201.4587249755859091
 21
13.5573272705078107
 31
0.0
  0
LINE
  5
369
100
AcDbEntity
100
AcDbLine
  8
CADDY_2
 62
140
370
-1
  6
CONTINUOUS
 10
199.7344055175780966
 20
13.6601715087890607
 30
0.0
 11
201.2337951660155966
 21
13.6601715087890607
 31
0.0
  0
LINE
  5
36A
100
AcDbEntity
100
AcDbLine
  8
CADDY_2
 62
140
370
-1
  6
CONTINUOUS
 10
199.7344055175780966
 20
13.76300048828125
 30
0.0
 11
201.0088806152344034
 21
13.76300048828125
 31
0.0
  0
LINE
  5
36B
100
AcDbEntity
100
AcDbLine
  8
CADDY_2
 62
140
370
-1
  6
CONTINUOUS
 10
199.6594085693359091
 20
13.8658447265625
 30
0.0
 11
200.9339141845703125
 21
13.8658447265625
 31
0.0
  0
LINE
  5
36C
100
AcDbEntity
100
AcDbLine
  8
CADDY_2
 62
140
370
-1
  6
CONTINUOUS
 10
199.6594085693359091
 20
13.9686737060546893
 30
0.0
 11
200.7839813232421875
 21
13.9686737060546893
 31
0.0
  0
LINE
  5
36D
100
AcDbEntity
100
AcDbLine
  8
CADDY_2
 62
140
370
-1
  6
CONTINUOUS
 10
199.6594085693359091
 20
14.0715026855468803
 30
0.0
 11
200.7090148925780966
 21
14.0715026855468803
 31
0.0
  0
LINE
  5
36E
100
AcDbEntity
100
AcDbLine
  8
CADDY_2
 62
140
370
-1
  6
CONTINUOUS
 10
199.6594085693359091
 20
14.1743469238281197
 30
0.0
 11
200.6340179443359091
 21
14.1743469238281197
 31
0.0
  0
LINE
  5
36F
100
AcDbEntity
100
AcDbLine
  8
CADDY_2
 62
140
370
-1
  6
CONTINUOUS
 10
199.58447265625
 20
14.2771759033203107
 30
0.0
 11
200.6340179443359091
 21
14.2771759033203107
 31
0.0
  0
LINE
  5
370
100
AcDbEntity
100
AcDbLine
  8
CADDY_2
 62
140
370
-1
  6
CONTINUOUS
 10
199.58447265625
 20
14.3800201416015607
 30
0.0
 11
200.55908203125
 21
14.3800201416015607
 31
0.0
  0
LINE
  5
371
100
AcDbEntity
100
AcDbLine
  8
CADDY_2
 62
140
370
-1
  6
CONTINUOUS
 10
199.58447265625
 20
14.48284912109375
 30
0.0
 11
200.55908203125
 21
14.48284912109375
 31
0.0
  0
LINE
  5
372
100
AcDbEntity
100
AcDbLine
  8
CADDY_2
 62
140
370
-1
  6
CONTINUOUS
 10
199.58447265625
 20
14.585693359375
 30
0.0
 11
200.4840850830078125
 21
14.585693359375
 31
0.0
  0
LINE
  5
373
100
AcDbEntity
100
AcDbLine
  8
CADDY_2
 62
140
370
-1
  6
CONTINUOUS
 10
199.58447265625
 20
14.6885223388671893
 30
0.0
 11
200.4840850830078125
 21
14.6885223388671893
 31
0.0
  0
LINE
  5
374
100
AcDbEntity
100
AcDbLine
  8
CADDY_2
 62
140
370
-1
  6
CONTINUOUS
 10
199.58447265625
 20
14.7913665771484393
 30
0.0
 11
200.4840850830078125
 21
14.7913665771484393
 31
0.0
  0
LINE
  5
375
100
AcDbEntity
100
AcDbLine
  8
CADDY_2
 62
140
370
-1
  6
CONTINUOUS
 10
199.58447265625
 20
14.8941955566406197
 30
0.0
 11
200.55908203125
 21
14.8941955566406197
 31
0.0
  0
LINE
  5
376
100
AcDbEntity
100
AcDbLine
  8
CADDY_2
 62
140
370
-1
  6
CONTINUOUS
 10
199.58447265625
 20
14.9970397949218803
 30
0.0
 11
200.55908203125
 21
14.9970397949218803
 31
0.0
  0
LINE
  5
377
100
AcDbEntity
100
AcDbLine
  8
CADDY_2
 62
140
370
-1
  6
CONTINUOUS
 10
199.6594085693359091
 20
15.0998687744140607
 30
0.0
 11
200.6340179443359091
 21
15.0998687744140607
 31
0.0
  0
LINE
  5
378
100
AcDbEntity
100
AcDbLine
  8
CADDY_2
 62
140
370
-1
  6
CONTINUOUS
 10
199.6594085693359091
 20
15.2027130126953107
 30
0.0
 11
200.7090148925780966
 21
15.2027130126953107
 31
0.0
  0
LINE
  5
379
100
AcDbEntity
100
AcDbLine
  8
CADDY_2
 62
140
370
-1
  6
CONTINUOUS
 10
199.6594085693359091
 20
15.3055419921875
 30
0.0
 11
200.7090148925780966
 21
15.3055419921875
 31
0.0
  0
LINE
  5
37A
100
AcDbEntity
100
AcDbLine
  8
CADDY_2
 62
140
370
-1
  6
CONTINUOUS
 10
199.6594085693359091
 20
15.4083709716796893
 30
0.0
 11
200.7839813232421875
 21
15.4083709716796893
 31
0.0
  0
LINE
  5
37B
100
AcDbEntity
100
AcDbLine
  8
CADDY_2
 62
140
370
-1
  6
CONTINUOUS
 10
199.6594085693359091
 20
15.5112152099609393
 30
0.0
 11
200.8589477539061932
 21
15.5112152099609393
 31
0.0
  0
LINE
  5
37C
100
AcDbEntity
100
AcDbLine
  8
CADDY_2
 62
140
370
-1
  6
CONTINUOUS
 10
199.7344055175780966
 20
15.6140441894531197
 30
0.0
 11
201.0088806152344034
 21
15.6140441894531197
 31
0.0
  0
LINE
  5
37D
100
AcDbEntity
100
AcDbLine
  8
CADDY_2
 62
140
370
-1
  6
CONTINUOUS
 10
199.7344055175780966
 20
15.7168884277343803
 30
0.0
 11
201.3087921142578125
 21
15.7168884277343803
 31
0.0
  0
LINE
  5
37E
100
AcDbEntity
100
AcDbLine
  8
CADDY_2
 62
140
370
-1
  6
CONTINUOUS
 10
199.8093414306640909
 20
15.8197174072265607
 30
0.0
 11
201.3837585449219034
 21
15.8197174072265607
 31
0.0
  0
LINE
  5
37F
100
AcDbEntity
100
AcDbLine
  8
CADDY_2
 62
140
370
-1
  6
CONTINUOUS
 10
199.8843078613280966
 20
15.92254638671875
 30
0.0
 11
222.9753570556640909
 21
15.92254638671875
 31
0.0
  0
LINE
  5
380
100
AcDbEntity
100
AcDbLine
  8
CADDY_2
 62
140
370
-1
  6
CONTINUOUS
 10
199.8843078613280966
 20
16.025390625
 30
0.0
 11
223.1252899169921875
 21
16.025390625
 31
0.0
  0
LINE
  5
381
100
AcDbEntity
100
AcDbLine
  8
CADDY_2
 62
140
370
-1
  6
CONTINUOUS
 10
200.0342407226561932
 20
16.12823486328125
 30
0.0
 11
204.5403289794921875
 21
16.12823486328125
 31
0.0
  0
LINE
  5
382
100
AcDbEntity
100
AcDbLine
  8
CADDY_2
 62
140
370
-1
  6
CONTINUOUS
 10
200.0342407226561932
 20
16.2310638427734411
 30
0.0
 11
204.5403289794921875
 21
16.2310638427734411
 31
0.0
  0
LINE
  5
383
100
AcDbEntity
100
AcDbLine
  8
CADDY_2
 62
140
370
-1
  6
CONTINUOUS
 10
200.1842041015625
 20
16.3338928222656214
 30
0.0
 11
204.5403289794921875
 21
16.3338928222656214
 31
0.0
  0
LINE
  5
384
100
AcDbEntity
100
AcDbLine
  8
CADDY_2
 62
140
370
-1
  6
CONTINUOUS
 10
200.2591857910155966
 20
16.4367370605468786
 30
0.0
 11
204.5403289794921875
 21
16.4367370605468786
 31
0.0
  0
LINE
  5
385
100
AcDbEntity
100
AcDbLine
  8
CADDY_2
 62
140
370
-1
  6
CONTINUOUS
 10
200.3341522216796875
 20
16.5395812988281214
 30
0.0
 11
204.5403289794921875
 21
16.5395812988281214
 31
0.0
  0
LINE
  5
386
100
AcDbEntity
100
AcDbLine
  8
CADDY_2
 62
140
370
-1
  6
CONTINUOUS
 10
200.4840850830078125
 20
16.6424102783203089
 30
0.0
 11
204.5403289794921875
 21
16.6424102783203089
 31
0.0
  0
LINE
  5
387
100
AcDbEntity
100
AcDbLine
  8
CADDY_2
 62
140
370
-1
  6
CONTINUOUS
 10
200.55908203125
 20
16.7452392578125
 30
0.0
 11
204.5403289794921875
 21
16.7452392578125
 31
0.0
  0
LINE
  5
388
100
AcDbEntity
100
AcDbLine
  8
CADDY_2
 62
140
370
-1
  6
CONTINUOUS
 10
200.7839813232421875
 20
16.84808349609375
 30
0.0
 11
204.5403289794921875
 21
16.84808349609375
 31
0.0
  0
LINE
  5
389
100
AcDbEntity
100
AcDbLine
  8
CADDY_2
 62
140
370
-1
  6
CONTINUOUS
 10
200.8589477539061932
 20
16.9509124755859411
 30
0.0
 11
204.5403289794921875
 21
16.9509124755859411
 31
0.0
  0
LINE
  5
38A
100
AcDbEntity
100
AcDbLine
  8
CADDY_2
 62
140
370
-1
  6
CONTINUOUS
 10
201.2337951660155966
 20
17.0537414550781214
 30
0.0
 11
223.0503234863280966
 21
17.0537414550781214
 31
0.0
  0
LINE
  5
38B
100
AcDbEntity
100
AcDbLine
  8
CADDY_2
 62
140
370
-1
  6
CONTINUOUS
 10
222.1802978515625
 20
16.8506011962890589
 30
0.0
 11
223.1252899169921875
 21
16.8506011962890589
 31
0.0
  0
LINE
  5
38C
100
AcDbEntity
100
AcDbLine
  8
CADDY_2
 62
140
370
-1
  6
CONTINUOUS
 10
222.1802978515625
 20
16.23358154296875
 30
0.0
 11
223.1252899169921875
 21
16.23358154296875
 31
0.0
  0
LINE
  5
38D
100
AcDbEntity
100
AcDbLine
  8
CADDY_2
 62
140
370
-1
  6
CONTINUOUS
 10
222.1802978515625
 20
16.33892822265625
 30
0.0
 11
223.1252899169921875
 21
16.33892822265625
 31
0.0
  0
LINE
  5
38E
100
AcDbEntity
100
AcDbLine
  8
CADDY_2
 62
140
370
-1
  6
CONTINUOUS
 10
222.1802978515625
 20
16.44427490234375
 30
0.0
 11
223.1252899169921875
 21
16.44427490234375
 31
0.0
  0
LINE
  5
38F
100
AcDbEntity
100
AcDbLine
  8
CADDY_2
 62
140
370
-1
  6
CONTINUOUS
 10
222.1802978515625
 20
16.5496368408203089
 30
0.0
 11
223.1252899169921875
 21
16.5496368408203089
 31
0.0
  0
LINE
  5
390
100
AcDbEntity
100
AcDbLine
  8
CADDY_2
 62
140
370
-1
  6
CONTINUOUS
 10
222.1802978515625
 20
16.6549835205078089
 30
0.0
 11
223.1252899169921875
 21
16.6549835205078089
 31
0.0
  0
LINE
  5
391
100
AcDbEntity
100
AcDbLine
  8
CADDY_2
 62
140
370
-1
  6
CONTINUOUS
 10
222.1802978515625
 20
16.7603454589843786
 30
0.0
 11
223.1252899169921875
 21
16.7603454589843786
 31
0.0
  0
LINE
  5
392
100
AcDbEntity
100
AcDbLine
  8
CADDY_2
 62
140
370
-1
  6
CONTINUOUS
 10
222.1802978515625
 20
16.9483947753906214
 30
0.0
 11
223.0503234863280966
 21
16.9483947753906214
 31
0.0
  0
LINE
  5
393
100
AcDbEntity
100
AcDbLine
  8
CADDY_2
 62
140
370
-1
  6
CONTINUOUS
 10
222.1802978515625
 20
16.1307525634765589
 30
0.0
 11
223.1252899169921875
 21
16.1307525634765589
 31
0.0
  0
ENDBLK
  5
394
100
AcDbEntity
  8
0
100
AcDbBlockEnd
  0
BLOCK
  5
395
100
AcDbEntity
  8
0
100
AcDbBlockBegin
  2
BLK4
 70
0
 10
0.0
 20
0.0
 30
0.0
  3
BLK4
  1

  0
LINE
  5
396
100
AcDbEntity
100
AcDbLine
  8
CADDY_2
 62
256
370
-1
  6
CONTINUOUS
 10
204.7356414794921875
 20
16.26202392578125
 30
0.0
 11
205.2894897460938068
 21
16.26202392578125
 31
0.0
  0
LINE
  5
397
100
AcDbEntity
100
AcDbLine
  8
CADDY_2
 62
256
370
-1
  6
CONTINUOUS
 10
205.4002532958984091
 20
16.26202392578125
 30
0.0
 11
205.9540863037109091
 21
16.26202392578125
 31
0.0
  0
LINE
  5
398
100
AcDbEntity
100
AcDbLine
  8
CADDY_2
 62
256
370
-1
  6
CONTINUOUS
 10
206.0279083251953125
 20
16.26202392578125
 30
0.0
 11
206.5817718505859091
 21
16.26202392578125
 31
0.0
  0
LINE
  5
399
100
AcDbEntity
100
AcDbLine
  8
CADDY_2
 62
256
370
-1
  6
CONTINUOUS
 10
206.6925354003905966
 20
16.26202392578125
 30
0.0
 11
207.0248413085938068
 21
16.26202392578125
 31
0.0
  0
LINE
  5
39A
100
AcDbEntity
100
AcDbLine
  8
CADDY_2
 62
256
370
-1
  6
CONTINUOUS
 10
207.0986785888671875
 20
16.26202392578125
 30
0.0
 11
207.4309387207030966
 21
16.26202392578125
 31
0.0
  0
LINE
  5
39B
100
AcDbEntity
100
AcDbLine
  8
CADDY_2
 62
256
370
-1
  6
CONTINUOUS
 10
207.5786437988280966
 20
16.26202392578125
 30
0.0
 11
207.8740234375
 21
16.26202392578125
 31
0.0
  0
LINE
  5
39C
100
AcDbEntity
100
AcDbLine
  8
CADDY_2
 62
256
370
-1
  6
CONTINUOUS
 10
208.1694030761719034
 20
16.26202392578125
 30
0.0
 11
208.5016937255859091
 21
16.26202392578125
 31
0.0
  0
LINE
  5
39D
100
AcDbEntity
100
AcDbLine
  8
CADDY_2
 62
256
370
-1
  6
CONTINUOUS
 10
208.6493988037109091
 20
16.26202392578125
 30
0.0
 11
208.7970733642578125
 21
16.26202392578125
 31
0.0
  0
LINE
  5
39E
100
AcDbEntity
100
AcDbLine
  8
CADDY_2
 62
256
370
-1
  6
CONTINUOUS
 10
209.0924530029296875
 20
16.26202392578125
 30
0.0
 11
209.31396484375
 21
16.26202392578125
 31
0.0
  0
LINE
  5
39F
100
AcDbEntity
100
AcDbLine
  8
CADDY_2
 62
256
370
-1
  6
CONTINUOUS
 10
209.6462707519530966
 20
16.26202392578125
 30
0.0
 11
209.9047393798828125
 21
16.26202392578125
 31
0.0
  0
LINE
  5
3A0
100
AcDbEntity
100
AcDbLine
  8
CADDY_2
 62
256
370
-1
  6
CONTINUOUS
 10
210.0524139404296875
 20
16.26202392578125
 30
0.0
 11
210.0893402099609091
 21
16.26202392578125
 31
0.0
  0
LINE
  5
3A1
100
AcDbEntity
100
AcDbLine
  8
CADDY_2
 62
256
370
-1
  6
CONTINUOUS
 10
210.2001190185546875
 20
16.26202392578125
 30
0.0
 11
210.4954528808594034
 21
16.26202392578125
 31
0.0
  0
LINE
  5
3A2
100
AcDbEntity
100
AcDbLine
  8
CADDY_2
 62
256
370
-1
  6
CONTINUOUS
 10
210.5693359375
 20
16.26202392578125
 30
0.0
 11
210.7908325195311932
 21
16.26202392578125
 31
0.0
  0
LINE
  5
3A3
100
AcDbEntity
100
AcDbLine
  8
CADDY_2
 62
256
370
-1
  6
CONTINUOUS
 10
210.9754333496094034
 20
16.26202392578125
 30
0.0
 11
211.2708282470703125
 21
16.26202392578125
 31
0.0
  0
LINE
  5
3A4
100
AcDbEntity
100
AcDbLine
  8
CADDY_2
 62
256
370
-1
  6
CONTINUOUS
 10
211.4924011230469034
 20
16.26202392578125
 30
0.0
 11
211.6400756835938068
 21
16.26202392578125
 31
0.0
  0
LINE
  5
3A5
100
AcDbEntity
100
AcDbLine
  8
CADDY_2
 62
256
370
-1
  6
CONTINUOUS
 10
212.1200408935546875
 20
16.26202392578125
 30
0.0
 11
212.3784790039061932
 21
16.26202392578125
 31
0.0
  0
LINE
  5
3A6
100
AcDbEntity
100
AcDbLine
  8
CADDY_2
 62
256
370
-1
  6
CONTINUOUS
 10
212.6000518798828125
 20
16.26202392578125
 30
0.0
 11
212.8953857421875
 21
16.26202392578125
 31
0.0
  0
LINE
  5
3A7
100
AcDbEntity
100
AcDbLine
  8
CADDY_2
 62
256
370
-1
  6
CONTINUOUS
 10
213.0430755615234091
 20
16.26202392578125
 30
0.0
 11
213.3384552001953125
 21
16.26202392578125
 31
0.0
  0
LINE
  5
3A8
100
AcDbEntity
100
AcDbLine
  8
CADDY_2
 62
256
370
-1
  6
CONTINUOUS
 10
213.44921875
 20
16.26202392578125
 30
0.0
 11
213.74462890625
 21
16.26202392578125
 31
0.0
  0
LINE
  5
3A9
100
AcDbEntity
100
AcDbLine
  8
CADDY_2
 62
256
370
-1
  6
CONTINUOUS
 10
213.8184356689453125
 20
16.26202392578125
 30
0.0
 11
214.076904296875
 21
16.26202392578125
 31
0.0
  0
LINE
  5
3AA
100
AcDbEntity
100
AcDbLine
  8
CADDY_2
 62
256
370
-1
  6
CONTINUOUS
 10
214.4091796875
 20
16.26202392578125
 30
0.0
 11
214.4461059570311932
 21
16.26202392578125
 31
0.0
  0
LINE
  5
3AB
100
AcDbEntity
100
AcDbLine
  8
CADDY_2
 62
256
370
-1
  6
CONTINUOUS
 10
214.6307067871094034
 20
16.26202392578125
 30
0.0
 11
215.1845550537109091
 21
16.26202392578125
 31
0.0
  0
LINE
  5
3AC
100
AcDbEntity
100
AcDbLine
  8
CADDY_2
 62
256
370
-1
  6
CONTINUOUS
 10
215.2584075927734091
 20
16.26202392578125
 30
0.0
 11
215.516845703125
 21
16.26202392578125
 31
0.0
  0
LINE
  5
3AD
100
AcDbEntity
100
AcDbLine
  8
CADDY_2
 62
256
370
-1
  6
CONTINUOUS
 10
215.8491668701171875
 20
16.26202392578125
 30
0.0
 11
215.8860626220703125
 21
16.26202392578125
 31
0.0
  0
LINE
  5
3AE
100
AcDbEntity
100
AcDbLine
  8
CADDY_2
 62
256
370
-1
  6
CONTINUOUS
 10
216.0706634521484091
 20
16.26202392578125
 30
0.0
 11
216.5875854492188068
 21
16.26202392578125
 31
0.0
  0
LINE
  5
3AF
100
AcDbEntity
100
AcDbLine
  8
CADDY_2
 62
256
370
-1
  6
CONTINUOUS
 10
216.7352752685546875
 20
16.26202392578125
 30
0.0
 11
216.9568176269530966
 21
16.26202392578125
 31
0.0
  0
LINE
  5
3B0
100
AcDbEntity
100
AcDbLine
  8
CADDY_2
 62
256
370
-1
  6
CONTINUOUS
 10
217.1414184570311932
 20
16.26202392578125
 30
0.0
 11
217.4367828369140909
 21
16.26202392578125
 31
0.0
  0
LINE
  5
3B1
100
AcDbEntity
100
AcDbLine
  8
CADDY_2
 62
256
370
-1
  6
CONTINUOUS
 10
217.732177734375
 20
16.26202392578125
 30
0.0
 11
217.9905853271484091
 21
16.26202392578125
 31
0.0
  0
LINE
  5
3B2
100
AcDbEntity
100
AcDbLine
  8
CADDY_2
 62
256
370
-1
  6
CONTINUOUS
 10
218.8028869628905966
 20
16.26202392578125
 30
0.0
 11
219.0613708496094034
 21
16.26202392578125
 31
0.0
  0
LINE
  5
3B3
100
AcDbEntity
100
AcDbLine
  8
CADDY_2
 62
256
370
-1
  6
CONTINUOUS
 10
219.3198089599609091
 20
16.26202392578125
 30
0.0
 11
219.5782470703125
 21
16.26202392578125
 31
0.0
  0
LINE
  5
3B4
100
AcDbEntity
100
AcDbLine
  8
CADDY_2
 62
256
370
-1
  6
CONTINUOUS
 10
219.7259368896484091
 20
16.26202392578125
 30
0.0
 11
219.7628479003905966
 21
16.26202392578125
 31
0.0
  0
LINE
  5
3B5
100
AcDbEntity
100
AcDbLine
  8
CADDY_2
 62
256
370
-1
  6
CONTINUOUS
 10
219.8736267089844034
 20
16.26202392578125
 30
0.0
 11
220.1690063476561932
 21
16.26202392578125
 31
0.0
  0
LINE
  5
3B6
100
AcDbEntity
100
AcDbLine
  8
CADDY_2
 62
256
370
-1
  6
CONTINUOUS
 10
220.27978515625
 20
16.26202392578125
 30
0.0
 11
220.7966918945311932
 21
16.26202392578125
 31
0.0
  0
LINE
  5
3B7
100
AcDbEntity
100
AcDbLine
  8
CADDY_2
 62
256
370
-1
  6
CONTINUOUS
 10
220.9812927246094034
 20
16.26202392578125
 30
0.0
 11
221.2766571044921875
 21
16.26202392578125
 31
0.0
  0
LINE
  5
3B8
100
AcDbEntity
100
AcDbLine
  8
CADDY_2
 62
256
370
-1
  6
CONTINUOUS
 10
221.4243469238280966
 20
16.26202392578125
 30
0.0
 11
221.7197418212890909
 21
16.26202392578125
 31
0.0
  0
LINE
  5
3B9
100
AcDbEntity
100
AcDbLine
  8
CADDY_2
 62
256
370
-1
  6
CONTINUOUS
 10
204.8095092773438068
 20
16.2987365722656214
 30
0.0
 11
204.9941101074219034
 21
16.2987365722656214
 31
0.0
  0
LINE
  5
3BA
100
AcDbEntity
100
AcDbLine
  8
CADDY_2
 62
256
370
-1
  6
CONTINUOUS
 10
205.2156524658203125
 20
16.2987365722656214
 30
0.0
 11
205.326416015625
 21
16.2987365722656214
 31
0.0
  0
LINE
  5
3BB
100
AcDbEntity
100
AcDbLine
  8
CADDY_2
 62
256
370
-1
  6
CONTINUOUS
 10
205.5110168457030966
 20
16.2987365722656214
 30
0.0
 11
205.65869140625
 21
16.2987365722656214
 31
0.0
  0
LINE
  5
3BC
100
AcDbEntity
100
AcDbLine
  8
CADDY_2
 62
256
370
-1
  6
CONTINUOUS
 10
205.8802337646484091
 20
16.2987365722656214
 30
0.0
 11
205.9910125732421875
 21
16.2987365722656214
 31
0.0
  0
LINE
  5
3BD
100
AcDbEntity
100
AcDbLine
  8
CADDY_2
 62
256
370
-1
  6
CONTINUOUS
 10
206.1017761230469034
 20
16.2987365722656214
 30
0.0
 11
206.286376953125
 21
16.2987365722656214
 31
0.0
  0
LINE
  5
3BE
100
AcDbEntity
100
AcDbLine
  8
CADDY_2
 62
256
370
-1
  6
CONTINUOUS
 10
206.5079040527344034
 20
16.2987365722656214
 30
0.0
 11
206.6186676025390909
 21
16.2987365722656214
 31
0.0
  0
LINE
  5
3BF
100
AcDbEntity
100
AcDbLine
  8
CADDY_2
 62
256
370
-1
  6
CONTINUOUS
 10
206.8032684326171875
 20
16.2987365722656214
 30
0.0
 11
206.9509735107421875
 21
16.2987365722656214
 31
0.0
  0
LINE
  5
3C0
100
AcDbEntity
100
AcDbLine
  8
CADDY_2
 62
256
370
-1
  6
CONTINUOUS
 10
207.1725158691405966
 20
16.2987365722656214
 30
0.0
 11
207.3571166992188068
 21
16.2987365722656214
 31
0.0
  0
LINE
  5
3C1
100
AcDbEntity
100
AcDbLine
  8
CADDY_2
 62
256
370
-1
  6
CONTINUOUS
 10
207.6525115966796875
 20
16.2987365722656214
 30
0.0
 11
207.8371124267578125
 21
16.2987365722656214
 31
0.0
  0
LINE
  5
3C2
100
AcDbEntity
100
AcDbLine
  8
CADDY_2
 62
256
370
-1
  6
CONTINUOUS
 10
208.2801513671875
 20
16.2987365722656214
 30
0.0
 11
208.4278411865234091
 21
16.2987365722656214
 31
0.0
  0
LINE
  5
3C3
100
AcDbEntity
100
AcDbLine
  8
CADDY_2
 62
256
370
-1
  6
CONTINUOUS
 10
208.6493988037109091
 20
16.2987365722656214
 30
0.0
 11
208.7601623535155966
 21
16.2987365722656214
 31
0.0
  0
LINE
  5
3C4
100
AcDbEntity
100
AcDbLine
  8
CADDY_2
 62
256
370
-1
  6
CONTINUOUS
 10
209.0186157226561932
 20
16.2987365722656214
 30
0.0
 11
209.1293640136719034
 21
16.2987365722656214
 31
0.0
  0
LINE
  5
3C5
100
AcDbEntity
100
AcDbLine
  8
CADDY_2
 62
256
370
-1
  6
CONTINUOUS
 10
209.31396484375
 20
16.2987365722656214
 30
0.0
 11
209.4247589111328125
 21
16.2987365722656214
 31
0.0
  0
LINE
  5
3C6
100
AcDbEntity
100
AcDbLine
  8
CADDY_2
 62
256
370
-1
  6
CONTINUOUS
 10
209.7570495605469034
 20
16.2987365722656214
 30
0.0
 11
209.8308715820311932
 21
16.2987365722656214
 31
0.0
  0
LINE
  5
3C7
100
AcDbEntity
100
AcDbLine
  8
CADDY_2
 62
256
370
-1
  6
CONTINUOUS
 10
210.0524139404296875
 20
16.2987365722656214
 30
0.0
 11
210.0893402099609091
 21
16.2987365722656214
 31
0.0
  0
LINE
  5
3C8
100
AcDbEntity
100
AcDbLine
  8
CADDY_2
 62
256
370
-1
  6
CONTINUOUS
 10
210.3108520507811932
 20
16.2987365722656214
 30
0.0
 11
210.4585418701171875
 21
16.2987365722656214
 31
0.0
  0
LINE
  5
3C9
100
AcDbEntity
100
AcDbLine
  8
CADDY_2
 62
256
370
-1
  6
CONTINUOUS
 10
210.6431427001953125
 20
16.2987365722656214
 30
0.0
 11
210.7539367675780966
 21
16.2987365722656214
 31
0.0
  0
LINE
  5
3CA
100
AcDbEntity
100
AcDbLine
  8
CADDY_2
 62
256
370
-1
  6
CONTINUOUS
 10
211.0493011474609091
 20
16.2987365722656214
 30
0.0
 11
211.1970062255859091
 21
16.2987365722656214
 31
0.0
  0
LINE
  5
3CB
100
AcDbEntity
100
AcDbLine
  8
CADDY_2
 62
256
370
-1
  6
CONTINUOUS
 10
211.3816070556640909
 20
16.2987365722656214
 30
0.0
 11
211.4924011230469034
 21
16.2987365722656214
 31
0.0
  0
LINE
  5
3CC
100
AcDbEntity
100
AcDbLine
  8
CADDY_2
 62
256
370
-1
  6
CONTINUOUS
 10
211.6400756835938068
 20
16.2987365722656214
 30
0.0
 11
211.7138824462890909
 21
16.2987365722656214
 31
0.0
  0
LINE
  5
3CD
100
AcDbEntity
100
AcDbLine
  8
CADDY_2
 62
256
370
-1
  6
CONTINUOUS
 10
212.0462036132811932
 20
16.2987365722656214
 30
0.0
 11
212.1938781738280966
 21
16.2987365722656214
 31
0.0
  0
LINE
  5
3CE
100
AcDbEntity
100
AcDbLine
  8
CADDY_2
 62
256
370
-1
  6
CONTINUOUS
 10
212.3784790039061932
 20
16.2987365722656214
 30
0.0
 11
212.4523620605469034
 21
16.2987365722656214
 31
0.0
  0
LINE
  5
3CF
100
AcDbEntity
100
AcDbLine
  8
CADDY_2
 62
256
370
-1
  6
CONTINUOUS
 10
212.7107849121094034
 20
16.2987365722656214
 30
0.0
 11
212.8584747314453125
 21
16.2987365722656214
 31
0.0
  0
LINE
  5
3D0
100
AcDbEntity
100
AcDbLine
  8
CADDY_2
 62
256
370
-1
  6
CONTINUOUS
 10
213.1169281005859091
 20
16.2987365722656214
 30
0.0
 11
213.2646179199219034
 21
16.2987365722656214
 31
0.0
  0
LINE
  5
3D1
100
AcDbEntity
100
AcDbLine
  8
CADDY_2
 62
256
370
-1
  6
CONTINUOUS
 10
213.5600280761719034
 20
16.2987365722656214
 30
0.0
 11
213.6707305908203125
 21
16.2987365722656214
 31
0.0
  0
LINE
  5
3D2
100
AcDbEntity
100
AcDbLine
  8
CADDY_2
 62
256
370
-1
  6
CONTINUOUS
 10
213.9292297363280966
 20
16.2987365722656214
 30
0.0
 11
214.0030364990234091
 21
16.2987365722656214
 31
0.0
  0
LINE
  5
3D3
100
AcDbEntity
100
AcDbLine
  8
CADDY_2
 62
256
370
-1
  6
CONTINUOUS
 10
214.4091796875
 20
16.2987365722656214
 30
0.0
 11
214.4830322265625
 21
16.2987365722656214
 31
0.0
  0
LINE
  5
3D4
100
AcDbEntity
100
AcDbLine
  8
CADDY_2
 62
256
370
-1
  6
CONTINUOUS
 10
214.7046051025390909
 20
16.2987365722656214
 30
0.0
 11
214.8892059326171875
 21
16.2987365722656214
 31
0.0
  0
LINE
  5
3D5
100
AcDbEntity
100
AcDbLine
  8
CADDY_2
 62
256
370
-1
  6
CONTINUOUS
 10
215.1107025146484091
 20
16.2987365722656214
 30
0.0
 11
215.2214813232421875
 21
16.2987365722656214
 31
0.0
  0
LINE
  5
3D6
100
AcDbEntity
100
AcDbLine
  8
CADDY_2
 62
256
370
-1
  6
CONTINUOUS
 10
215.3691558837890909
 20
16.2987365722656214
 30
0.0
 11
215.4430084228515909
 21
16.2987365722656214
 31
0.0
  0
LINE
  5
3D7
100
AcDbEntity
100
AcDbLine
  8
CADDY_2
 62
256
370
-1
  6
CONTINUOUS
 10
215.8491668701171875
 20
16.2987365722656214
 30
0.0
 11
215.9229736328125
 21
16.2987365722656214
 31
0.0
  0
LINE
  5
3D8
100
AcDbEntity
100
AcDbLine
  8
CADDY_2
 62
256
370
-1
  6
CONTINUOUS
 10
216.1814575195311932
 20
16.2987365722656214
 30
0.0
 11
216.2922058105469034
 21
16.2987365722656214
 31
0.0
  0
LINE
  5
3D9
100
AcDbEntity
100
AcDbLine
  8
CADDY_2
 62
256
370
-1
  6
CONTINUOUS
 10
216.476806640625
 20
16.2987365722656214
 30
0.0
 11
216.6245269775390909
 21
16.2987365722656214
 31
0.0
  0
LINE
  5
3DA
100
AcDbEntity
100
AcDbLine
  8
CADDY_2
 62
256
370
-1
  6
CONTINUOUS
 10
216.8091278076171875
 20
16.2987365722656214
 30
0.0
 11
216.9198913574219034
 21
16.2987365722656214
 31
0.0
  0
LINE
  5
3DB
100
AcDbEntity
100
AcDbLine
  8
CADDY_2
 62
256
370
-1
  6
CONTINUOUS
 10
217.2152252197265909
 20
16.2987365722656214
 30
0.0
 11
217.3629455566405966
 21
16.2987365722656214
 31
0.0
  0
LINE
  5
3DC
100
AcDbEntity
100
AcDbLine
  8
CADDY_2
 62
256
370
-1
  6
CONTINUOUS
 10
217.6952514648438068
 20
16.2987365722656214
 30
0.0
 11
217.8059844970703125
 21
16.2987365722656214
 31
0.0
  0
LINE
  5
3DD
100
AcDbEntity
100
AcDbLine
  8
CADDY_2
 62
256
370
-1
  6
CONTINUOUS
 10
217.9905853271484091
 20
16.2987365722656214
 30
0.0
 11
218.0644683837890909
 21
16.2987365722656214
 31
0.0
  0
LINE
  5
3DE
100
AcDbEntity
100
AcDbLine
  8
CADDY_2
 62
256
370
-1
  6
CONTINUOUS
 10
218.7290496826171875
 20
16.2987365722656214
 30
0.0
 11
218.8767700195311932
 21
16.2987365722656214
 31
0.0
  0
LINE
  5
3DF
100
AcDbEntity
100
AcDbLine
  8
CADDY_2
 62
256
370
-1
  6
CONTINUOUS
 10
219.0613708496094034
 20
16.2987365722656214
 30
0.0
 11
219.1351776123046875
 21
16.2987365722656214
 31
0.0
  0
LINE
  5
3E0
100
AcDbEntity
100
AcDbLine
  8
CADDY_2
 62
256
370
-1
  6
CONTINUOUS
 10
219.4305725097655966
 20
16.2987365722656214
 30
0.0
 11
219.5044097900390909
 21
16.2987365722656214
 31
0.0
  0
LINE
  5
3E1
100
AcDbEntity
100
AcDbLine
  8
CADDY_2
 62
256
370
-1
  6
CONTINUOUS
 10
219.7259368896484091
 20
16.2987365722656214
 30
0.0
 11
219.7628479003905966
 21
16.2987365722656214
 31
0.0
  0
LINE
  5
3E2
100
AcDbEntity
100
AcDbLine
  8
CADDY_2
 62
256
370
-1
  6
CONTINUOUS
 10
219.9844055175780966
 20
16.2987365722656214
 30
0.0
 11
220.132080078125
 21
16.2987365722656214
 31
0.0
  0
LINE
  5
3E3
100
AcDbEntity
100
AcDbLine
  8
CADDY_2
 62
256
370
-1
  6
CONTINUOUS
 10
220.3905334472655966
 20
16.2987365722656214
 30
0.0
 11
220.5012969970703125
 21
16.2987365722656214
 31
0.0
  0
LINE
  5
3E4
100
AcDbEntity
100
AcDbLine
  8
CADDY_2
 62
256
370
-1
  6
CONTINUOUS
 10
220.6858978271484091
 20
16.2987365722656214
 30
0.0
 11
220.8335876464844034
 21
16.2987365722656214
 31
0.0
  0
LINE
  5
3E5
100
AcDbEntity
100
AcDbLine
  8
CADDY_2
 62
256
370
-1
  6
CONTINUOUS
 10
221.0920562744140909
 20
16.2987365722656214
 30
0.0
 11
221.2397613525390909
 21
16.2987365722656214
 31
0.0
  0
LINE
  5
3E6
100
AcDbEntity
100
AcDbLine
  8
CADDY_2
 62
256
370
-1
  6
CONTINUOUS
 10
221.4981994628905966
 20
16.2987365722656214
 30
0.0
 11
221.6458587646484091
 21
16.2987365722656214
 31
0.0
  0
LINE
  5
3E7
100
AcDbEntity
100
AcDbLine
  8
CADDY_2
 62
256
370
-1
  6
CONTINUOUS
 10
204.8833465576171875
 20
16.3354339599609411
 30
0.0
 11
204.9571990966796875
 21
16.3354339599609411
 31
0.0
  0
LINE
  5
3E8
100
AcDbEntity
100
AcDbLine
  8
CADDY_2
 62
256
370
-1
  6
CONTINUOUS
 10
205.2525482177734091
 20
16.3354339599609411
 30
0.0
 11
205.326416015625
 21
16.3354339599609411
 31
0.0
  0
LINE
  5
3E9
100
AcDbEntity
100
AcDbLine
  8
CADDY_2
 62
256
370
-1
  6
CONTINUOUS
 10
205.5479278564453125
 20
16.3354339599609411
 30
0.0
 11
205.6218109130859091
 21
16.3354339599609411
 31
0.0
  0
LINE
  5
3EA
100
AcDbEntity
100
AcDbLine
  8
CADDY_2
 62
256
370
-1
  6
CONTINUOUS
 10
205.9171600341796875
 20
16.3354339599609411
 30
0.0
 11
205.9910125732421875
 21
16.3354339599609411
 31
0.0
  0
LINE
  5
3EB
100
AcDbEntity
100
AcDbLine
  8
CADDY_2
 62
256
370
-1
  6
CONTINUOUS
 10
206.1756134033203125
 20
16.3354339599609411
 30
0.0
 11
206.2494659423828125
 21
16.3354339599609411
 31
0.0
  0
LINE
  5
3EC
100
AcDbEntity
100
AcDbLine
  8
CADDY_2
 62
256
370
-1
  6
CONTINUOUS
 10
206.5448608398438068
 20
16.3354339599609411
 30
0.0
 11
206.6186676025390909
 21
16.3354339599609411
 31
0.0
  0
LINE
  5
3ED
100
AcDbEntity
100
AcDbLine
  8
CADDY_2
 62
256
370
-1
  6
CONTINUOUS
 10
206.8402404785155966
 20
16.3354339599609411
 30
0.0
 11
206.9140625
 21
16.3354339599609411
 31
0.0
  0
LINE
  5
3EE
100
AcDbEntity
100
AcDbLine
  8
CADDY_2
 62
256
370
-1
  6
CONTINUOUS
 10
207.2094421386719034
 20
16.3354339599609411
 30
0.0
 11
207.3201904296875
 21
16.3354339599609411
 31
0.0
  0
LINE
  5
3EF
100
AcDbEntity
100
AcDbLine
  8
CADDY_2
 62
256
370
-1
  6
CONTINUOUS
 10
207.7263488769530966
 20
16.3354339599609411
 30
0.0
 11
207.8001556396484091
 21
16.3354339599609411
 31
0.0
  0
LINE
  5
3F0
100
AcDbEntity
100
AcDbLine
  8
CADDY_2
 62
256
370
-1
  6
CONTINUOUS
 10
208.3170776367188068
 20
16.3354339599609411
 30
0.0
 11
208.3909149169921875
 21
16.3354339599609411
 31
0.0
  0
LINE
  5
3F1
100
AcDbEntity
100
AcDbLine
  8
CADDY_2
 62
256
370
-1
  6
CONTINUOUS
 10
208.6124725341796875
 20
16.3354339599609411
 30
0.0
 11
208.7232055664061932
 21
16.3354339599609411
 31
0.0
  0
LINE
  5
3F2
100
AcDbEntity
100
AcDbLine
  8
CADDY_2
 62
256
370
-1
  6
CONTINUOUS
 10
208.9816741943359091
 20
16.3354339599609411
 30
0.0
 11
209.0924530029296875
 21
16.3354339599609411
 31
0.0
  0
LINE
  5
3F3
100
AcDbEntity
100
AcDbLine
  8
CADDY_2
 62
256
370
-1
  6
CONTINUOUS
 10
209.3878173828125
 20
16.3354339599609411
 30
0.0
 11
209.4985809326171875
 21
16.3354339599609411
 31
0.0
  0
LINE
  5
3F4
100
AcDbEntity
100
AcDbLine
  8
CADDY_2
 62
256
370
-1
  6
CONTINUOUS
 10
209.7939605712890909
 20
16.3354339599609411
 30
0.0
 11
209.8308715820311932
 21
16.3354339599609411
 31
0.0
  0
LINE
  5
3F5
100
AcDbEntity
100
AcDbLine
  8
CADDY_2
 62
256
370
-1
  6
CONTINUOUS
 10
210.0524139404296875
 20
16.3354339599609411
 30
0.0
 11
210.1262512207030966
 21
16.3354339599609411
 31
0.0
  0
LINE
  5
3F6
100
AcDbEntity
100
AcDbLine
  8
CADDY_2
 62
256
370
-1
  6
CONTINUOUS
 10
210.3477935791015909
 20
16.3354339599609411
 30
0.0
 11
210.421630859375
 21
16.3354339599609411
 31
0.0
  0
LINE
  5
3F7
100
AcDbEntity
100
AcDbLine
  8
CADDY_2
 62
256
370
-1
  6
CONTINUOUS
 10
210.6800842285155966
 20
16.3354339599609411
 30
0.0
 11
210.7170257568359091
 21
16.3354339599609411
 31
0.0
  0
LINE
  5
3F8
100
AcDbEntity
100
AcDbLine
  8
CADDY_2
 62
256
370
-1
  6
CONTINUOUS
 10
211.0862274169921875
 20
16.3354339599609411
 30
0.0
 11
211.1970062255859091
 21
16.3354339599609411
 31
0.0
  0
LINE
  5
3F9
100
AcDbEntity
100
AcDbLine
  8
CADDY_2
 62
256
370
-1
  6
CONTINUOUS
 10
211.3816070556640909
 20
16.3354339599609411
 30
0.0
 11
211.4554290771484091
 21
16.3354339599609411
 31
0.0
  0
LINE
  5
3FA
100
AcDbEntity
100
AcDbLine
  8
CADDY_2
 62
256
370
-1
  6
CONTINUOUS
 10
211.677001953125
 20
16.3354339599609411
 30
0.0
 11
211.7508087158203125
 21
16.3354339599609411
 31
0.0
  0
LINE
  5
3FB
100
AcDbEntity
100
AcDbLine
  8
CADDY_2
 62
256
370
-1
  6
CONTINUOUS
 10
212.00927734375
 20
16.3354339599609411
 30
0.0
 11
212.1200408935546875
 21
16.3354339599609411
 31
0.0
  0
LINE
  5
3FC
100
AcDbEntity
100
AcDbLine
  8
CADDY_2
 62
256
370
-1
  6
CONTINUOUS
 10
212.4523620605469034
 20
16.3354339599609411
 30
0.0
 11
212.5261840820311932
 21
16.3354339599609411
 31
0.0
  0
LINE
  5
3FD
100
AcDbEntity
100
AcDbLine
  8
CADDY_2
 62
256
370
-1
  6
CONTINUOUS
 10
212.7476806640625
 20
16.3354339599609411
 30
0.0
 11
212.8215637207030966
 21
16.3354339599609411
 31
0.0
  0
LINE
  5
3FE
100
AcDbEntity
100
AcDbLine
  8
CADDY_2
 62
256
370
-1
  6
CONTINUOUS
 10
213.1907806396484091
 20
16.3354339599609411
 30
0.0
 11
213.2646179199219034
 21
16.3354339599609411
 31
0.0
  0
LINE
  5
3FF
100
AcDbEntity
100
AcDbLine
  8
CADDY_2
 62
256
370
-1
  6
CONTINUOUS
 10
213.596923828125
 20
16.3354339599609411
 30
0.0
 11
213.6707305908203125
 21
16.3354339599609411
 31
0.0
  0
LINE
  5
400
100
AcDbEntity
100
AcDbLine
  8
CADDY_2
 62
256
370
-1
  6
CONTINUOUS
 10
213.9661254882811932
 20
16.3354339599609411
 30
0.0
 11
214.0030364990234091
 21
16.3354339599609411
 31
0.0
  0
LINE
  5
401
100
AcDbEntity
100
AcDbLine
  8
CADDY_2
 62
256
370
-1
  6
CONTINUOUS
 10
214.3722839355469034
 20
16.3354339599609411
 30
0.0
 11
214.4830322265625
 21
16.3354339599609411
 31
0.0
  0
LINE
  5
402
100
AcDbEntity
100
AcDbLine
  8
CADDY_2
 62
256
370
-1
  6
CONTINUOUS
 10
214.7783966064453125
 20
16.3354339599609411
 30
0.0
 11
214.8522644042969034
 21
16.3354339599609411
 31
0.0
  0
LINE
  5
403
100
AcDbEntity
100
AcDbLine
  8
CADDY_2
 62
256
370
-1
  6
CONTINUOUS
 10
215.1476135253905966
 20
16.3354339599609411
 30
0.0
 11
215.2214813232421875
 21
16.3354339599609411
 31
0.0
  0
LINE
  5
404
100
AcDbEntity
100
AcDbLine
  8
CADDY_2
 62
256
370
-1
  6
CONTINUOUS
 10
215.4060821533203125
 20
16.3354339599609411
 30
0.0
 11
215.4430084228515909
 21
16.3354339599609411
 31
0.0
  0
LINE
  5
405
100
AcDbEntity
100
AcDbLine
  8
CADDY_2
 62
256
370
-1
  6
CONTINUOUS
 10
215.8122406005859091
 20
16.3354339599609411
 30
0.0
 11
215.9229736328125
 21
16.3354339599609411
 31
0.0
  0
LINE
  5
406
100
AcDbEntity
100
AcDbLine
  8
CADDY_2
 62
256
370
-1
  6
CONTINUOUS
 10
216.2183685302734091
 20
16.3354339599609411
 30
0.0
 11
216.2922058105469034
 21
16.3354339599609411
 31
0.0
  0
LINE
  5
407
100
AcDbEntity
100
AcDbLine
  8
CADDY_2
 62
256
370
-1
  6
CONTINUOUS
 10
216.5506591796875
 20
16.3354339599609411
 30
0.0
 11
216.6614074707030966
 21
16.3354339599609411
 31
0.0
  0
LINE
  5
408
100
AcDbEntity
100
AcDbLine
  8
CADDY_2
 62
256
370
-1
  6
CONTINUOUS
 10
216.8460083007811932
 20
16.3354339599609411
 30
0.0
 11
216.8829498291015909
 21
16.3354339599609411
 31
0.0
  0
LINE
  5
409
100
AcDbEntity
100
AcDbLine
  8
CADDY_2
 62
256
370
-1
  6
CONTINUOUS
 10
217.2521820068359091
 20
16.3354339599609411
 30
0.0
 11
217.3629455566405966
 21
16.3354339599609411
 31
0.0
  0
LINE
  5
40A
100
AcDbEntity
100
AcDbLine
  8
CADDY_2
 62
256
370
-1
  6
CONTINUOUS
 10
217.6583099365234091
 20
16.3354339599609411
 30
0.0
 11
217.7690887451171875
 21
16.3354339599609411
 31
0.0
  0
LINE
  5
40B
100
AcDbEntity
100
AcDbLine
  8
CADDY_2
 62
256
370
-1
  6
CONTINUOUS
 10
218.0644683837890909
 20
16.3354339599609411
 30
0.0
 11
218.1013946533203125
 21
16.3354339599609411
 31
0.0
  0
LINE
  5
40C
100
AcDbEntity
100
AcDbLine
  8
CADDY_2
 62
256
370
-1
  6
CONTINUOUS
 10
218.6921539306640909
 20
16.3354339599609411
 30
0.0
 11
218.8028869628905966
 21
16.3354339599609411
 31
0.0
  0
LINE
  5
40D
100
AcDbEntity
100
AcDbLine
  8
CADDY_2
 62
256
370
-1
  6
CONTINUOUS
 10
219.0982513427734091
 20
16.3354339599609411
 30
0.0
 11
219.2090301513671875
 21
16.3354339599609411
 31
0.0
  0
LINE
  5
40E
100
AcDbEntity
100
AcDbLine
  8
CADDY_2
 62
256
370
-1
  6
CONTINUOUS
 10
219.4674682617188068
 20
16.3354339599609411
 30
0.0
 11
219.5044097900390909
 21
16.3354339599609411
 31
0.0
  0
LINE
  5
40F
100
AcDbEntity
100
AcDbLine
  8
CADDY_2
 62
256
370
-1
  6
CONTINUOUS
 10
219.7259368896484091
 20
16.3354339599609411
 30
0.0
 11
219.7997894287109091
 21
16.3354339599609411
 31
0.0
  0
LINE
  5
410
100
AcDbEntity
100
AcDbLine
  8
CADDY_2
 62
256
370
-1
  6
CONTINUOUS
 10
220.0213317871094034
 20
16.3354339599609411
 30
0.0
 11
220.0951843261719034
 21
16.3354339599609411
 31
0.0
  0
LINE
  5
411
100
AcDbEntity
100
AcDbLine
  8
CADDY_2
 62
256
370
-1
  6
CONTINUOUS
 10
220.4274597167969034
 20
16.3354339599609411
 30
0.0
 11
220.5012969970703125
 21
16.3354339599609411
 31
0.0
  0
LINE
  5
412
100
AcDbEntity
100
AcDbLine
  8
CADDY_2
 62
256
370
-1
  6
CONTINUOUS
 10
220.759765625
 20
16.3354339599609411
 30
0.0
 11
220.8704986572265909
 21
16.3354339599609411
 31
0.0
  0
LINE
  5
413
100
AcDbEntity
100
AcDbLine
  8
CADDY_2
 62
256
370
-1
  6
CONTINUOUS
 10
221.1289825439453125
 20
16.3354339599609411
 30
0.0
 11
221.2027893066405966
 21
16.3354339599609411
 31
0.0
  0
LINE
  5
414
100
AcDbEntity
100
AcDbLine
  8
CADDY_2
 62
256
370
-1
  6
CONTINUOUS
 10
221.5720367431640909
 20
16.3354339599609411
 30
0.0
 11
221.6458587646484091
 21
16.3354339599609411
 31
0.0
  0
LINE
  5
415
100
AcDbEntity
100
AcDbLine
  8
CADDY_2
 62
256
370
-1
  6
CONTINUOUS
 10
204.8833465576171875
 20
16.3721466064453089
 30
0.0
 11
204.9571990966796875
 21
16.3721466064453089
 31
0.0
  0
LINE
  5
416
100
AcDbEntity
100
AcDbLine
  8
CADDY_2
 62
256
370
-1
  6
CONTINUOUS
 10
205.326416015625
 20
16.3721466064453089
 30
0.0
 11
205.3633270263671875
 21
16.3721466064453089
 31
0.0
  0
LINE
  5
417
100
AcDbEntity
100
AcDbLine
  8
CADDY_2
 62
256
370
-1
  6
CONTINUOUS
 10
205.5479278564453125
 20
16.3721466064453089
 30
0.0
 11
205.6218109130859091
 21
16.3721466064453089
 31
0.0
  0
LINE
  5
418
100
AcDbEntity
100
AcDbLine
  8
CADDY_2
 62
256
370
-1
  6
CONTINUOUS
 10
205.9540863037109091
 20
16.3721466064453089
 30
0.0
 11
206.0279083251953125
 21
16.3721466064453089
 31
0.0
  0
LINE
  5
419
100
AcDbEntity
100
AcDbLine
  8
CADDY_2
 62
256
370
-1
  6
CONTINUOUS
 10
206.1756134033203125
 20
16.3721466064453089
 30
0.0
 11
206.2494659423828125
 21
16.3721466064453089
 31
0.0
  0
LINE
  5
41A
100
AcDbEntity
100
AcDbLine
  8
CADDY_2
 62
256
370
-1
  6
CONTINUOUS
 10
206.6186676025390909
 20
16.3721466064453089
 30
0.0
 11
206.6555633544921875
 21
16.3721466064453089
 31
0.0
  0
LINE
  5
41B
100
AcDbEntity
100
AcDbLine
  8
CADDY_2
 62
256
370
-1
  6
CONTINUOUS
 10
206.8402404785155966
 20
16.3721466064453089
 30
0.0
 11
206.9140625
 21
16.3721466064453089
 31
0.0
  0
LINE
  5
41C
100
AcDbEntity
100
AcDbLine
  8
CADDY_2
 62
256
370
-1
  6
CONTINUOUS
 10
207.1725158691405966
 20
16.3721466064453089
 30
0.0
 11
207.3201904296875
 21
16.3721466064453089
 31
0.0
  0
LINE
  5
41D
100
AcDbEntity
100
AcDbLine
  8
CADDY_2
 62
256
370
-1
  6
CONTINUOUS
 10
207.7263488769530966
 20
16.3721466064453089
 30
0.0
 11
207.8001556396484091
 21
16.3721466064453089
 31
0.0
  0
LINE
  5
41E
100
AcDbEntity
100
AcDbLine
  8
CADDY_2
 62
256
370
-1
  6
CONTINUOUS
 10
208.3170776367188068
 20
16.3721466064453089
 30
0.0
 11
208.3909149169921875
 21
16.3721466064453089
 31
0.0
  0
LINE
  5
41F
100
AcDbEntity
100
AcDbLine
  8
CADDY_2
 62
256
370
-1
  6
CONTINUOUS
 10
208.6124725341796875
 20
16.3721466064453089
 30
0.0
 11
208.7232055664061932
 21
16.3721466064453089
 31
0.0
  0
LINE
  5
420
100
AcDbEntity
100
AcDbLine
  8
CADDY_2
 62
256
370
-1
  6
CONTINUOUS
 10
208.9447631835938068
 20
16.3721466064453089
 30
0.0
 11
209.0555267333984091
 21
16.3721466064453089
 31
0.0
  0
LINE
  5
421
100
AcDbEntity
100
AcDbLine
  8
CADDY_2
 62
256
370
-1
  6
CONTINUOUS
 10
209.4247589111328125
 20
16.3721466064453089
 30
0.0
 11
209.5354919433594034
 21
16.3721466064453089
 31
0.0
  0
LINE
  5
422
100
AcDbEntity
100
AcDbLine
  8
CADDY_2
 62
256
370
-1
  6
CONTINUOUS
 10
209.7939605712890909
 20
16.3721466064453089
 30
0.0
 11
209.8308715820311932
 21
16.3721466064453089
 31
0.0
  0
LINE
  5
423
100
AcDbEntity
100
AcDbLine
  8
CADDY_2
 62
256
370
-1
  6
CONTINUOUS
 10
210.0154724121094034
 20
16.3721466064453089
 30
0.0
 11
210.1631927490234091
 21
16.3721466064453089
 31
0.0
  0
LINE
  5
424
100
AcDbEntity
100
AcDbLine
  8
CADDY_2
 62
256
370
-1
  6
CONTINUOUS
 10
210.3477935791015909
 20
16.3721466064453089
 30
0.0
 11
210.421630859375
 21
16.3721466064453089
 31
0.0
  0
LINE
  5
425
100
AcDbEntity
100
AcDbLine
  8
CADDY_2
 62
256
370
-1
  6
CONTINUOUS
 10
210.7170257568359091
 20
16.3721466064453089
 30
0.0
 11
210.7539367675780966
 21
16.3721466064453089
 31
0.0
  0
LINE
  5
426
100
AcDbEntity
100
AcDbLine
  8
CADDY_2
 62
256
370
-1
  6
CONTINUOUS
 10
211.0862274169921875
 20
16.3721466064453089
 30
0.0
 11
211.1970062255859091
 21
16.3721466064453089
 31
0.0
  0
LINE
  5
427
100
AcDbEntity
100
AcDbLine
  8
CADDY_2
 62
256
370
-1
  6
CONTINUOUS
 10
211.3816070556640909
 20
16.3721466064453089
 30
0.0
 11
211.4554290771484091
 21
16.3721466064453089
 31
0.0
  0
LINE
  5
428
100
AcDbEntity
100
AcDbLine
  8
CADDY_2
 62
256
370
-1
  6
CONTINUOUS
 10
211.7138824462890909
 20
16.3721466064453089
 30
0.0
 11
211.7877044677734091
 21
16.3721466064453089
 31
0.0
  0
LINE
  5
429
100
AcDbEntity
100
AcDbLine
  8
CADDY_2
 62
256
370
-1
  6
CONTINUOUS
 10
212.00927734375
 20
16.3721466064453089
 30
0.0
 11
212.1200408935546875
 21
16.3721466064453089
 31
0.0
  0
LINE
  5
42A
100
AcDbEntity
100
AcDbLine
  8
CADDY_2
 62
256
370
-1
  6
CONTINUOUS
 10
212.4892425537109091
 20
16.3721466064453089
 30
0.0
 11
212.5630798339844034
 21
16.3721466064453089
 31
0.0
  0
LINE
  5
42B
100
AcDbEntity
100
AcDbLine
  8
CADDY_2
 62
256
370
-1
  6
CONTINUOUS
 10
212.7476806640625
 20
16.3721466064453089
 30
0.0
 11
212.8215637207030966
 21
16.3721466064453089
 31
0.0
  0
LINE
  5
42C
100
AcDbEntity
100
AcDbLine
  8
CADDY_2
 62
256
370
-1
  6
CONTINUOUS
 10
213.1907806396484091
 20
16.3721466064453089
 30
0.0
 11
213.2646179199219034
 21
16.3721466064453089
 31
0.0
  0
LINE
  5
42D
100
AcDbEntity
100
AcDbLine
  8
CADDY_2
 62
256
370
-1
  6
CONTINUOUS
 10
213.596923828125
 20
16.3721466064453089
 30
0.0
 11
213.6707305908203125
 21
16.3721466064453089
 31
0.0
  0
LINE
  5
42E
100
AcDbEntity
100
AcDbLine
  8
CADDY_2
 62
256
370
-1
  6
CONTINUOUS
 10
213.9661254882811932
 20
16.3721466064453089
 30
0.0
 11
214.0030364990234091
 21
16.3721466064453089
 31
0.0
  0
LINE
  5
42F
100
AcDbEntity
100
AcDbLine
  8
CADDY_2
 62
256
370
-1
  6
CONTINUOUS
 10
214.3722839355469034
 20
16.3721466064453089
 30
0.0
 11
214.4830322265625
 21
16.3721466064453089
 31
0.0
  0
LINE
  5
430
100
AcDbEntity
100
AcDbLine
  8
CADDY_2
 62
256
370
-1
  6
CONTINUOUS
 10
214.7783966064453125
 20
16.3721466064453089
 30
0.0
 11
214.8522644042969034
 21
16.3721466064453089
 31
0.0
  0
LINE
  5
431
100
AcDbEntity
100
AcDbLine
  8
CADDY_2
 62
256
370
-1
  6
CONTINUOUS
 10
215.2214813232421875
 20
16.3721466064453089
 30
0.0
 11
215.2584075927734091
 21
16.3721466064453089
 31
0.0
  0
LINE
  5
432
100
AcDbEntity
100
AcDbLine
  8
CADDY_2
 62
256
370
-1
  6
CONTINUOUS
 10
215.4060821533203125
 20
16.3721466064453089
 30
0.0
 11
215.4430084228515909
 21
16.3721466064453089
 31
0.0
  0
LINE
  5
433
100
AcDbEntity
100
AcDbLine
  8
CADDY_2
 62
256
370
-1
  6
CONTINUOUS
 10
215.8122406005859091
 20
16.3721466064453089
 30
0.0
 11
215.9229736328125
 21
16.3721466064453089
 31
0.0
  0
LINE
  5
434
100
AcDbEntity
100
AcDbLine
  8
CADDY_2
 62
256
370
-1
  6
CONTINUOUS
 10
216.2183685302734091
 20
16.3721466064453089
 30
0.0
 11
216.2922058105469034
 21
16.3721466064453089
 31
0.0
  0
LINE
  5
435
100
AcDbEntity
100
AcDbLine
  8
CADDY_2
 62
256
370
-1
  6
CONTINUOUS
 10
216.5875854492188068
 20
16.3721466064453089
 30
0.0
 11
216.6983489990234091
 21
16.3721466064453089
 31
0.0
  0
LINE
  5
436
100
AcDbEntity
100
AcDbLine
  8
CADDY_2
 62
256
370
-1
  6
CONTINUOUS
 10
216.8829498291015909
 20
16.3721466064453089
 30
0.0
 11
216.9198913574219034
 21
16.3721466064453089
 31
0.0
  0
LINE
  5
437
100
AcDbEntity
100
AcDbLine
  8
CADDY_2
 62
256
370
-1
  6
CONTINUOUS
 10
217.2521820068359091
 20
16.3721466064453089
 30
0.0
 11
217.3629455566405966
 21
16.3721466064453089
 31
0.0
  0
LINE
  5
438
100
AcDbEntity
100
AcDbLine
  8
CADDY_2
 62
256
370
-1
  6
CONTINUOUS
 10
217.6583099365234091
 20
16.3721466064453089
 30
0.0
 11
217.7690887451171875
 21
16.3721466064453089
 31
0.0
  0
LINE
  5
439
100
AcDbEntity
100
AcDbLine
  8
CADDY_2
 62
256
370
-1
  6
CONTINUOUS
 10
218.1013946533203125
 20
16.3721466064453089
 30
0.0
 11
218.1383056640625
 21
16.3721466064453089
 31
0.0
  0
LINE
  5
43A
100
AcDbEntity
100
AcDbLine
  8
CADDY_2
 62
256
370
-1
  6
CONTINUOUS
 10
218.6921539306640909
 20
16.3721466064453089
 30
0.0
 11
218.8028869628905966
 21
16.3721466064453089
 31
0.0
  0
LINE
  5
43B
100
AcDbEntity
100
AcDbLine
  8
CADDY_2
 62
256
370
-1
  6
CONTINUOUS
 10
219.1351776123046875
 20
16.3721466064453089
 30
0.0
 11
219.2090301513671875
 21
16.3721466064453089
 31
0.0
  0
LINE
  5
43C
100
AcDbEntity
100
AcDbLine
  8
CADDY_2
 62
256
370
-1
  6
CONTINUOUS
 10
219.4674682617188068
 20
16.3721466064453089
 30
0.0
 11
219.5044097900390909
 21
16.3721466064453089
 31
0.0
  0
LINE
  5
43D
100
AcDbEntity
100
AcDbLine
  8
CADDY_2
 62
256
370
-1
  6
CONTINUOUS
 10
219.6890106201171875
 20
16.3721466064453089
 30
0.0
 11
219.8367309570311932
 21
16.3721466064453089
 31
0.0
  0
LINE
  5
43E
100
AcDbEntity
100
AcDbLine
  8
CADDY_2
 62
256
370
-1
  6
CONTINUOUS
 10
220.0213317871094034
 20
16.3721466064453089
 30
0.0
 11
220.0951843261719034
 21
16.3721466064453089
 31
0.0
  0
LINE
  5
43F
100
AcDbEntity
100
AcDbLine
  8
CADDY_2
 62
256
370
-1
  6
CONTINUOUS
 10
220.4274597167969034
 20
16.3721466064453089
 30
0.0
 11
220.5012969970703125
 21
16.3721466064453089
 31
0.0
  0
LINE
  5
440
100
AcDbEntity
100
AcDbLine
  8
CADDY_2
 62
256
370
-1
  6
CONTINUOUS
 10
220.7966918945311932
 20
16.3721466064453089
 30
0.0
 11
220.9074554443359091
 21
16.3721466064453089
 31
0.0
  0
LINE
  5
441
100
AcDbEntity
100
AcDbLine
  8
CADDY_2
 62
256
370
-1
  6
CONTINUOUS
 10
221.1289825439453125
 20
16.3721466064453089
 30
0.0
 11
221.2027893066405966
 21
16.3721466064453089
 31
0.0
  0
LINE
  5
442
100
AcDbEntity
100
AcDbLine
  8
CADDY_2
 62
256
370
-1
  6
CONTINUOUS
 10
221.5720367431640909
 20
16.3721466064453089
 30
0.0
 11
221.6458587646484091
 21
16.3721466064453089
 31
0.0
  0
LINE
  5
443
100
AcDbEntity
100
AcDbLine
  8
CADDY_2
 62
256
370
-1
  6
CONTINUOUS
 10
204.9202575683594034
 20
16.4088439941406214
 30
0.0
 11
204.9941101074219034
 21
16.4088439941406214
 31
0.0
  0
LINE
  5
444
100
AcDbEntity
100
AcDbLine
  8
CADDY_2
 62
256
370
-1
  6
CONTINUOUS
 10
205.326416015625
 20
16.4088439941406214
 30
0.0
 11
205.3633270263671875
 21
16.4088439941406214
 31
0.0
  0
LINE
  5
445
100
AcDbEntity
100
AcDbLine
  8
CADDY_2
 62
256
370
-1
  6
CONTINUOUS
 10
205.5848846435546875
 20
16.4088439941406214
 30
0.0
 11
205.65869140625
 21
16.4088439941406214
 31
0.0
  0
LINE
  5
446
100
AcDbEntity
100
AcDbLine
  8
CADDY_2
 62
256
370
-1
  6
CONTINUOUS
 10
205.9910125732421875
 20
16.4088439941406214
 30
0.0
 11
206.0279083251953125
 21
16.4088439941406214
 31
0.0
  0
LINE
  5
447
100
AcDbEntity
100
AcDbLine
  8
CADDY_2
 62
256
370
-1
  6
CONTINUOUS
 10
206.2125244140625
 20
16.4088439941406214
 30
0.0
 11
206.286376953125
 21
16.4088439941406214
 31
0.0
  0
LINE
  5
448
100
AcDbEntity
100
AcDbLine
  8
CADDY_2
 62
256
370
-1
  6
CONTINUOUS
 10
206.6186676025390909
 20
16.4088439941406214
 30
0.0
 11
206.6555633544921875
 21
16.4088439941406214
 31
0.0
  0
LINE
  5
449
100
AcDbEntity
100
AcDbLine
  8
CADDY_2
 62
256
370
-1
  6
CONTINUOUS
 10
206.8771362304688068
 20
16.4088439941406214
 30
0.0
 11
206.9509735107421875
 21
16.4088439941406214
 31
0.0
  0
LINE
  5
44A
100
AcDbEntity
100
AcDbLine
  8
CADDY_2
 62
256
370
-1
  6
CONTINUOUS
 10
207.1725158691405966
 20
16.4088439941406214
 30
0.0
 11
207.2832794189453125
 21
16.4088439941406214
 31
0.0
  0
LINE
  5
44B
100
AcDbEntity
100
AcDbLine
  8
CADDY_2
 62
256
370
-1
  6
CONTINUOUS
 10
207.7632446289061932
 20
16.4088439941406214
 30
0.0
 11
207.8371124267578125
 21
16.4088439941406214
 31
0.0
  0
LINE
  5
44C
100
AcDbEntity
100
AcDbLine
  8
CADDY_2
 62
256
370
-1
  6
CONTINUOUS
 10
208.35400390625
 20
16.4088439941406214
 30
0.0
 11
208.4278411865234091
 21
16.4088439941406214
 31
0.0
  0
LINE
  5
44D
100
AcDbEntity
100
AcDbLine
  8
CADDY_2
 62
256
370
-1
  6
CONTINUOUS
 10
208.6124725341796875
 20
16.4088439941406214
 30
0.0
 11
208.7232055664061932
 21
16.4088439941406214
 31
0.0
  0
LINE
  5
44E
100
AcDbEntity
100
AcDbLine
  8
CADDY_2
 62
256
370
-1
  6
CONTINUOUS
 10
208.9447631835938068
 20
16.4088439941406214
 30
0.0
 11
209.0555267333984091
 21
16.4088439941406214
 31
0.0
  0
LINE
  5
44F
100
AcDbEntity
100
AcDbLine
  8
CADDY_2
 62
256
370
-1
  6
CONTINUOUS
 10
209.461669921875
 20
16.4088439941406214
 30
0.0
 11
209.5724487304688068
 21
16.4088439941406214
 31
0.0
  0
LINE
  5
450
100
AcDbEntity
100
AcDbLine
  8
CADDY_2
 62
256
370
-1
  6
CONTINUOUS
 10
209.8308715820311932
 20
16.4088439941406214
 30
0.0
 11
209.8677825927734091
 21
16.4088439941406214
 31
0.0
  0
LINE
  5
451
100
AcDbEntity
100
AcDbLine
  8
CADDY_2
 62
256
370
-1
  6
CONTINUOUS
 10
210.0154724121094034
 20
16.4088439941406214
 30
0.0
 11
210.2001190185546875
 21
16.4088439941406214
 31
0.0
  0
LINE
  5
452
100
AcDbEntity
100
AcDbLine
  8
CADDY_2
 62
256
370
-1
  6
CONTINUOUS
 10
210.3847351074219034
 20
16.4088439941406214
 30
0.0
 11
210.4585418701171875
 21
16.4088439941406214
 31
0.0
  0
LINE
  5
453
100
AcDbEntity
100
AcDbLine
  8
CADDY_2
 62
256
370
-1
  6
CONTINUOUS
 10
210.7170257568359091
 20
16.4088439941406214
 30
0.0
 11
210.7539367675780966
 21
16.4088439941406214
 31
0.0
  0
LINE
  5
454
100
AcDbEntity
100
AcDbLine
  8
CADDY_2
 62
256
370
-1
  6
CONTINUOUS
 10
211.0862274169921875
 20
16.4088439941406214
 30
0.0
 11
211.1970062255859091
 21
16.4088439941406214
 31
0.0
  0
LINE
  5
455
100
AcDbEntity
100
AcDbLine
  8
CADDY_2
 62
256
370
-1
  6
CONTINUOUS
 10
211.4185028076171875
 20
16.4088439941406214
 30
0.0
 11
211.4554290771484091
 21
16.4088439941406214
 31
0.0
  0
LINE
  5
456
100
AcDbEntity
100
AcDbLine
  8
CADDY_2
 62
256
370
-1
  6
CONTINUOUS
 10
211.7508087158203125
 20
16.4088439941406214
 30
0.0
 11
211.7877044677734091
 21
16.4088439941406214
 31
0.0
  0
LINE
  5
457
100
AcDbEntity
100
AcDbLine
  8
CADDY_2
 62
256
370
-1
  6
CONTINUOUS
 10
211.9723358154296875
 20
16.4088439941406214
 30
0.0
 11
212.0831298828125
 21
16.4088439941406214
 31
0.0
  0
LINE
  5
458
100
AcDbEntity
100
AcDbLine
  8
CADDY_2
 62
256
370
-1
  6
CONTINUOUS
 10
212.5261840820311932
 20
16.4088439941406214
 30
0.0
 11
212.5630798339844034
 21
16.4088439941406214
 31
0.0
  0
LINE
  5
459
100
AcDbEntity
100
AcDbLine
  8
CADDY_2
 62
256
370
-1
  6
CONTINUOUS
 10
212.7846527099609091
 20
16.4088439941406214
 30
0.0
 11
212.8584747314453125
 21
16.4088439941406214
 31
0.0
  0
LINE
  5
45A
100
AcDbEntity
100
AcDbLine
  8
CADDY_2
 62
256
370
-1
  6
CONTINUOUS
 10
213.2276916503905966
 20
16.4088439941406214
 30
0.0
 11
213.3015289306640909
 21
16.4088439941406214
 31
0.0
  0
LINE
  5
45B
100
AcDbEntity
100
AcDbLine
  8
CADDY_2
 62
256
370
-1
  6
CONTINUOUS
 10
213.6338043212890909
 20
16.4088439941406214
 30
0.0
 11
213.7076568603515909
 21
16.4088439941406214
 31
0.0
  0
LINE
  5
45C
100
AcDbEntity
100
AcDbLine
  8
CADDY_2
 62
256
370
-1
  6
CONTINUOUS
 10
214.0030364990234091
 20
16.4088439941406214
 30
0.0
 11
214.0399780273438068
 21
16.4088439941406214
 31
0.0
  0
LINE
  5
45D
100
AcDbEntity
100
AcDbLine
  8
CADDY_2
 62
256
370
-1
  6
CONTINUOUS
 10
214.3353424072265909
 20
16.4088439941406214
 30
0.0
 11
214.5199890136719034
 21
16.4088439941406214
 31
0.0
  0
LINE
  5
45E
100
AcDbEntity
100
AcDbLine
  8
CADDY_2
 62
256
370
-1
  6
CONTINUOUS
 10
214.8153076171875
 20
16.4088439941406214
 30
0.0
 11
214.8892059326171875
 21
16.4088439941406214
 31
0.0
  0
LINE
  5
45F
100
AcDbEntity
100
AcDbLine
  8
CADDY_2
 62
256
370
-1
  6
CONTINUOUS
 10
215.2214813232421875
 20
16.4088439941406214
 30
0.0
 11
215.2584075927734091
 21
16.4088439941406214
 31
0.0
  0
LINE
  5
460
100
AcDbEntity
100
AcDbLine
  8
CADDY_2
 62
256
370
-1
  6
CONTINUOUS
 10
215.4430084228515909
 20
16.4088439941406214
 30
0.0
 11
215.4799652099609091
 21
16.4088439941406214
 31
0.0
  0
LINE
  5
461
100
AcDbEntity
100
AcDbLine
  8
CADDY_2
 62
256
370
-1
  6
CONTINUOUS
 10
215.7752838134765909
 20
16.4088439941406214
 30
0.0
 11
215.9599151611328125
 21
16.4088439941406214
 31
0.0
  0
LINE
  5
462
100
AcDbEntity
100
AcDbLine
  8
CADDY_2
 62
256
370
-1
  6
CONTINUOUS
 10
216.2552642822265909
 20
16.4088439941406214
 30
0.0
 11
216.3291168212890909
 21
16.4088439941406214
 31
0.0
  0
LINE
  5
463
100
AcDbEntity
100
AcDbLine
  8
CADDY_2
 62
256
370
-1
  6
CONTINUOUS
 10
216.6245269775390909
 20
16.4088439941406214
 30
0.0
 11
216.7352752685546875
 21
16.4088439941406214
 31
0.0
  0
LINE
  5
464
100
AcDbEntity
100
AcDbLine
  8
CADDY_2
 62
256
370
-1
  6
CONTINUOUS
 10
216.8829498291015909
 20
16.4088439941406214
 30
0.0
 11
216.9198913574219034
 21
16.4088439941406214
 31
0.0
  0
LINE
  5
465
100
AcDbEntity
100
AcDbLine
  8
CADDY_2
 62
256
370
-1
  6
CONTINUOUS
 10
217.2521820068359091
 20
16.4088439941406214
 30
0.0
 11
217.3629455566405966
 21
16.4088439941406214
 31
0.0
  0
LINE
  5
466
100
AcDbEntity
100
AcDbLine
  8
CADDY_2
 62
256
370
-1
  6
CONTINUOUS
 10
217.6952514648438068
 20
16.4088439941406214
 30
0.0
 11
217.7690887451171875
 21
16.4088439941406214
 31
0.0
  0
LINE
  5
467
100
AcDbEntity
100
AcDbLine
  8
CADDY_2
 62
256
370
-1
  6
CONTINUOUS
 10
218.1013946533203125
 20
16.4088439941406214
 30
0.0
 11
218.1383056640625
 21
16.4088439941406214
 31
0.0
  0
LINE
  5
468
100
AcDbEntity
100
AcDbLine
  8
CADDY_2
 62
256
370
-1
  6
CONTINUOUS
 10
218.6552124023438068
 20
16.4088439941406214
 30
0.0
 11
218.8028869628905966
 21
16.4088439941406214
 31
0.0
  0
LINE
  5
469
100
AcDbEntity
100
AcDbLine
  8
CADDY_2
 62
256
370
-1
  6
CONTINUOUS
 10
219.172119140625
 20
16.4088439941406214
 30
0.0
 11
219.2459716796875
 21
16.4088439941406214
 31
0.0
  0
LINE
  5
46A
100
AcDbEntity
100
AcDbLine
  8
CADDY_2
 62
256
370
-1
  6
CONTINUOUS
 10
219.5044097900390909
 20
16.4088439941406214
 30
0.0
 11
219.5413360595703125
 21
16.4088439941406214
 31
0.0
  0
LINE
  5
46B
100
AcDbEntity
100
AcDbLine
  8
CADDY_2
 62
256
370
-1
  6
CONTINUOUS
 10
219.6890106201171875
 20
16.4088439941406214
 30
0.0
 11
219.8736267089844034
 21
16.4088439941406214
 31
0.0
  0
LINE
  5
46C
100
AcDbEntity
100
AcDbLine
  8
CADDY_2
 62
256
370
-1
  6
CONTINUOUS
 10
220.0582275390625
 20
16.4088439941406214
 30
0.0
 11
220.132080078125
 21
16.4088439941406214
 31
0.0
  0
LINE
  5
46D
100
AcDbEntity
100
AcDbLine
  8
CADDY_2
 62
256
370
-1
  6
CONTINUOUS
 10
220.4643859863280966
 20
16.4088439941406214
 30
0.0
 11
220.5382232666015909
 21
16.4088439941406214
 31
0.0
  0
LINE
  5
46E
100
AcDbEntity
100
AcDbLine
  8
CADDY_2
 62
256
370
-1
  6
CONTINUOUS
 10
220.8335876464844034
 20
16.4088439941406214
 30
0.0
 11
220.9443817138671875
 21
16.4088439941406214
 31
0.0
  0
LINE
  5
46F
100
AcDbEntity
100
AcDbLine
  8
CADDY_2
 62
256
370
-1
  6
CONTINUOUS
 10
221.1659088134765909
 20
16.4088439941406214
 30
0.0
 11
221.2397613525390909
 21
16.4088439941406214
 31
0.0
  0
LINE
  5
470
100
AcDbEntity
100
AcDbLine
  8
CADDY_2
 62
256
370
-1
  6
CONTINUOUS
 10
221.6089630126953125
 20
16.4088439941406214
 30
0.0
 11
221.6828155517578125
 21
16.4088439941406214
 31
0.0
  0
LINE
  5
471
100
AcDbEntity
100
AcDbLine
  8
CADDY_2
 62
256
370
-1
  6
CONTINUOUS
 10
204.9202575683594034
 20
16.4455261230468786
 30
0.0
 11
204.9941101074219034
 21
16.4455261230468786
 31
0.0
  0
LINE
  5
472
100
AcDbEntity
100
AcDbLine
  8
CADDY_2
 62
256
370
-1
  6
CONTINUOUS
 10
205.1418151855469034
 20
16.4455261230468786
 30
0.0
 11
205.1787261962890909
 21
16.4455261230468786
 31
0.0
  0
LINE
  5
473
100
AcDbEntity
100
AcDbLine
  8
CADDY_2
 62
256
370
-1
  6
CONTINUOUS
 10
205.5848846435546875
 20
16.4455261230468786
 30
0.0
 11
205.65869140625
 21
16.4455261230468786
 31
0.0
  0
LINE
  5
474
100
AcDbEntity
100
AcDbLine
  8
CADDY_2
 62
256
370
-1
  6
CONTINUOUS
 10
206.0279083251953125
 20
16.4455261230468786
 30
0.0
 11
206.0648651123046875
 21
16.4455261230468786
 31
0.0
  0
LINE
  5
475
100
AcDbEntity
100
AcDbLine
  8
CADDY_2
 62
256
370
-1
  6
CONTINUOUS
 10
206.2125244140625
 20
16.4455261230468786
 30
0.0
 11
206.286376953125
 21
16.4455261230468786
 31
0.0
  0
LINE
  5
476
100
AcDbEntity
100
AcDbLine
  8
CADDY_2
 62
256
370
-1
  6
CONTINUOUS
 10
206.4340667724609091
 20
16.4455261230468786
 30
0.0
 11
206.4709777832030966
 21
16.4455261230468786
 31
0.0
  0
LINE
  5
477
100
AcDbEntity
100
AcDbLine
  8
CADDY_2
 62
256
370
-1
  6
CONTINUOUS
 10
206.8771362304688068
 20
16.4455261230468786
 30
0.0
 11
206.9509735107421875
 21
16.4455261230468786
 31
0.0
  0
LINE
  5
478
100
AcDbEntity
100
AcDbLine
  8
CADDY_2
 62
256
370
-1
  6
CONTINUOUS
 10
207.1355895996094034
 20
16.4455261230468786
 30
0.0
 11
207.2832794189453125
 21
16.4455261230468786
 31
0.0
  0
LINE
  5
479
100
AcDbEntity
100
AcDbLine
  8
CADDY_2
 62
256
370
-1
  6
CONTINUOUS
 10
207.7632446289061932
 20
16.4455261230468786
 30
0.0
 11
207.8371124267578125
 21
16.4455261230468786
 31
0.0
  0
LINE
  5
47A
100
AcDbEntity
100
AcDbLine
  8
CADDY_2
 62
256
370
-1
  6
CONTINUOUS
 10
208.35400390625
 20
16.4455261230468786
 30
0.0
 11
208.4278411865234091
 21
16.4455261230468786
 31
0.0
  0
LINE
  5
47B
100
AcDbEntity
100
AcDbLine
  8
CADDY_2
 62
256
370
-1
  6
CONTINUOUS
 10
208.6124725341796875
 20
16.4455261230468786
 30
0.0
 11
208.7232055664061932
 21
16.4455261230468786
 31
0.0
  0
LINE
  5
47C
100
AcDbEntity
100
AcDbLine
  8
CADDY_2
 62
256
370
-1
  6
CONTINUOUS
 10
208.9447631835938068
 20
16.4455261230468786
 30
0.0
 11
209.0186157226561932
 21
16.4455261230468786
 31
0.0
  0
LINE
  5
47D
100
AcDbEntity
100
AcDbLine
  8
CADDY_2
 62
256
370
-1
  6
CONTINUOUS
 10
209.4985809326171875
 20
16.4455261230468786
 30
0.0
 11
209.6093597412109091
 21
16.4455261230468786
 31
0.0
  0
LINE
  5
47E
100
AcDbEntity
100
AcDbLine
  8
CADDY_2
 62
256
370
-1
  6
CONTINUOUS
 10
209.8308715820311932
 20
16.4455261230468786
 30
0.0
 11
209.8677825927734091
 21
16.4455261230468786
 31
0.0
  0
LINE
  5
47F
100
AcDbEntity
100
AcDbLine
  8
CADDY_2
 62
256
370
-1
  6
CONTINUOUS
 10
210.0154724121094034
 20
16.4455261230468786
 30
0.0
 11
210.2001190185546875
 21
16.4455261230468786
 31
0.0
  0
LINE
  5
480
100
AcDbEntity
100
AcDbLine
  8
CADDY_2
 62
256
370
-1
  6
CONTINUOUS
 10
210.3847351074219034
 20
16.4455261230468786
 30
0.0
 11
210.4585418701171875
 21
16.4455261230468786
 31
0.0
  0
LINE
  5
481
100
AcDbEntity
100
AcDbLine
  8
CADDY_2
 62
256
370
-1
  6
CONTINUOUS
 10
210.7539367675780966
 20
16.4455261230468786
 30
0.0
 11
210.7908325195311932
 21
16.4455261230468786
 31
0.0
  0
LINE
  5
482
100
AcDbEntity
100
AcDbLine
  8
CADDY_2
 62
256
370
-1
  6
CONTINUOUS
 10
211.0862274169921875
 20
16.4455261230468786
 30
0.0
 11
211.1970062255859091
 21
16.4455261230468786
 31
0.0
  0
LINE
  5
483
100
AcDbEntity
100
AcDbLine
  8
CADDY_2
 62
256
370
-1
  6
CONTINUOUS
 10
211.4185028076171875
 20
16.4455261230468786
 30
0.0
 11
211.4554290771484091
 21
16.4455261230468786
 31
0.0
  0
LINE
  5
484
100
AcDbEntity
100
AcDbLine
  8
CADDY_2
 62
256
370
-1
  6
CONTINUOUS
 10
211.7508087158203125
 20
16.4455261230468786
 30
0.0
 11
211.8246765136719034
 21
16.4455261230468786
 31
0.0
  0
LINE
  5
485
100
AcDbEntity
100
AcDbLine
  8
CADDY_2
 62
256
370
-1
  6
CONTINUOUS
 10
211.9723358154296875
 20
16.4455261230468786
 30
0.0
 11
212.0831298828125
 21
16.4455261230468786
 31
0.0
  0
LINE
  5
486
100
AcDbEntity
100
AcDbLine
  8
CADDY_2
 62
256
370
-1
  6
CONTINUOUS
 10
212.5630798339844034
 20
16.4455261230468786
 30
0.0
 11
212.6000518798828125
 21
16.4455261230468786
 31
0.0
  0
LINE
  5
487
100
AcDbEntity
100
AcDbLine
  8
CADDY_2
 62
256
370
-1
  6
CONTINUOUS
 10
212.7846527099609091
 20
16.4455261230468786
 30
0.0
 11
212.8584747314453125
 21
16.4455261230468786
 31
0.0
  0
LINE
  5
488
100
AcDbEntity
100
AcDbLine
  8
CADDY_2
 62
256
370
-1
  6
CONTINUOUS
 10
213.2276916503905966
 20
16.4455261230468786
 30
0.0
 11
213.3015289306640909
 21
16.4455261230468786
 31
0.0
  0
LINE
  5
489
100
AcDbEntity
100
AcDbLine
  8
CADDY_2
 62
256
370
-1
  6
CONTINUOUS
 10
213.6338043212890909
 20
16.4455261230468786
 30
0.0
 11
213.7076568603515909
 21
16.4455261230468786
 31
0.0
  0
LINE
  5
48A
100
AcDbEntity
100
AcDbLine
  8
CADDY_2
 62
256
370
-1
  6
CONTINUOUS
 10
214.0030364990234091
 20
16.4455261230468786
 30
0.0
 11
214.0399780273438068
 21
16.4455261230468786
 31
0.0
  0
LINE
  5
48B
100
AcDbEntity
100
AcDbLine
  8
CADDY_2
 62
256
370
-1
  6
CONTINUOUS
 10
214.3353424072265909
 20
16.4455261230468786
 30
0.0
 11
214.5199890136719034
 21
16.4455261230468786
 31
0.0
  0
LINE
  5
48C
100
AcDbEntity
100
AcDbLine
  8
CADDY_2
 62
256
370
-1
  6
CONTINUOUS
 10
214.8153076171875
 20
16.4455261230468786
 30
0.0
 11
214.8892059326171875
 21
16.4455261230468786
 31
0.0
  0
LINE
  5
48D
100
AcDbEntity
100
AcDbLine
  8
CADDY_2
 62
256
370
-1
  6
CONTINUOUS
 10
215.0368804931640909
 20
16.4455261230468786
 30
0.0
 11
215.0738067626953125
 21
16.4455261230468786
 31
0.0
  0
LINE
  5
48E
100
AcDbEntity
100
AcDbLine
  8
CADDY_2
 62
256
370
-1
  6
CONTINUOUS
 10
215.4430084228515909
 20
16.4455261230468786
 30
0.0
 11
215.4799652099609091
 21
16.4455261230468786
 31
0.0
  0
LINE
  5
48F
100
AcDbEntity
100
AcDbLine
  8
CADDY_2
 62
256
370
-1
  6
CONTINUOUS
 10
215.7752838134765909
 20
16.4455261230468786
 30
0.0
 11
215.9599151611328125
 21
16.4455261230468786
 31
0.0
  0
LINE
  5
490
100
AcDbEntity
100
AcDbLine
  8
CADDY_2
 62
256
370
-1
  6
CONTINUOUS
 10
216.2552642822265909
 20
16.4455261230468786
 30
0.0
 11
216.3291168212890909
 21
16.4455261230468786
 31
0.0
  0
LINE
  5
491
100
AcDbEntity
100
AcDbLine
  8
CADDY_2
 62
256
370
-1
  6
CONTINUOUS
 10
216.6245269775390909
 20
16.4455261230468786
 30
0.0
 11
216.7352752685546875
 21
16.4455261230468786
 31
0.0
  0
LINE
  5
492
100
AcDbEntity
100
AcDbLine
  8
CADDY_2
 62
256
370
-1
  6
CONTINUOUS
 10
216.9198913574219034
 20
16.4455261230468786
 30
0.0
 11
216.9568176269530966
 21
16.4455261230468786
 31
0.0
  0
LINE
  5
493
100
AcDbEntity
100
AcDbLine
  8
CADDY_2
 62
256
370
-1
  6
CONTINUOUS
 10
217.2521820068359091
 20
16.4455261230468786
 30
0.0
 11
217.3629455566405966
 21
16.4455261230468786
 31
0.0
  0
LINE
  5
494
100
AcDbEntity
100
AcDbLine
  8
CADDY_2
 62
256
370
-1
  6
CONTINUOUS
 10
217.6952514648438068
 20
16.4455261230468786
 30
0.0
 11
217.7690887451171875
 21
16.4455261230468786
 31
0.0
  0
LINE
  5
495
100
AcDbEntity
100
AcDbLine
  8
CADDY_2
 62
256
370
-1
  6
CONTINUOUS
 10
218.1383056640625
 20
16.4455261230468786
 30
0.0
 11
218.1751861572265909
 21
16.4455261230468786
 31
0.0
  0
LINE
  5
496
100
AcDbEntity
100
AcDbLine
  8
CADDY_2
 62
256
370
-1
  6
CONTINUOUS
 10
218.6552124023438068
 20
16.4455261230468786
 30
0.0
 11
218.7659606933594034
 21
16.4455261230468786
 31
0.0
  0
LINE
  5
497
100
AcDbEntity
100
AcDbLine
  8
CADDY_2
 62
256
370
-1
  6
CONTINUOUS
 10
219.1351776123046875
 20
16.4455261230468786
 30
0.0
 11
219.2459716796875
 21
16.4455261230468786
 31
0.0
  0
LINE
  5
498
100
AcDbEntity
100
AcDbLine
  8
CADDY_2
 62
256
370
-1
  6
CONTINUOUS
 10
219.5044097900390909
 20
16.4455261230468786
 30
0.0
 11
219.5413360595703125
 21
16.4455261230468786
 31
0.0
  0
LINE
  5
499
100
AcDbEntity
100
AcDbLine
  8
CADDY_2
 62
256
370
-1
  6
CONTINUOUS
 10
219.6890106201171875
 20
16.4455261230468786
 30
0.0
 11
219.8736267089844034
 21
16.4455261230468786
 31
0.0
  0
LINE
  5
49A
100
AcDbEntity
100
AcDbLine
  8
CADDY_2
 62
256
370
-1
  6
CONTINUOUS
 10
220.0582275390625
 20
16.4455261230468786
 30
0.0
 11
220.132080078125
 21
16.4455261230468786
 31
0.0
  0
LINE
  5
49B
100
AcDbEntity
100
AcDbLine
  8
CADDY_2
 62
256
370
-1
  6
CONTINUOUS
 10
220.4643859863280966
 20
16.4455261230468786
 30
0.0
 11
220.5382232666015909
 21
16.4455261230468786
 31
0.0
  0
LINE
  5
49C
100
AcDbEntity
100
AcDbLine
  8
CADDY_2
 62
256
370
-1
  6
CONTINUOUS
 10
220.8335876464844034
 20
16.4455261230468786
 30
0.0
 11
220.9443817138671875
 21
16.4455261230468786
 31
0.0
  0
LINE
  5
49D
100
AcDbEntity
100
AcDbLine
  8
CADDY_2
 62
256
370
-1
  6
CONTINUOUS
 10
221.1659088134765909
 20
16.4455261230468786
 30
0.0
 11
221.2397613525390909
 21
16.4455261230468786
 31
0.0
  0
LINE
  5
49E
100
AcDbEntity
100
AcDbLine
  8
CADDY_2
 62
256
370
-1
  6
CONTINUOUS
 10
221.6089630126953125
 20
16.4455261230468786
 30
0.0
 11
221.6828155517578125
 21
16.4455261230468786
 31
0.0
  0
LINE
  5
49F
100
AcDbEntity
100
AcDbLine
  8
CADDY_2
 62
256
370
-1
  6
CONTINUOUS
 10
204.9202575683594034
 20
16.4822235107421911
 30
0.0
 11
204.9941101074219034
 21
16.4822235107421911
 31
0.0
  0
LINE
  5
4A0
100
AcDbEntity
100
AcDbLine
  8
CADDY_2
 62
256
370
-1
  6
CONTINUOUS
 10
205.1418151855469034
 20
16.4822235107421911
 30
0.0
 11
205.1787261962890909
 21
16.4822235107421911
 31
0.0
  0
LINE
  5
4A1
100
AcDbEntity
100
AcDbLine
  8
CADDY_2
 62
256
370
-1
  6
CONTINUOUS
 10
205.5848846435546875
 20
16.4822235107421911
 30
0.0
 11
205.65869140625
 21
16.4822235107421911
 31
0.0
  0
LINE
  5
4A2
100
AcDbEntity
100
AcDbLine
  8
CADDY_2
 62
256
370
-1
  6
CONTINUOUS
 10
206.2125244140625
 20
16.4822235107421911
 30
0.0
 11
206.286376953125
 21
16.4822235107421911
 31
0.0
  0
LINE
  5
4A3
100
AcDbEntity
100
AcDbLine
  8
CADDY_2
 62
256
370
-1
  6
CONTINUOUS
 10
206.4340667724609091
 20
16.4822235107421911
 30
0.0
 11
206.4709777832030966
 21
16.4822235107421911
 31
0.0
  0
LINE
  5
4A4
100
AcDbEntity
100
AcDbLine
  8
CADDY_2
 62
256
370
-1
  6
CONTINUOUS
 10
206.8771362304688068
 20
16.4822235107421911
 30
0.0
 11
206.9509735107421875
 21
16.4822235107421911
 31
0.0
  0
LINE
  5
4A5
100
AcDbEntity
100
AcDbLine
  8
CADDY_2
 62
256
370
-1
  6
CONTINUOUS
 10
207.0986785888671875
 20
16.4822235107421911
 30
0.0
 11
207.246337890625
 21
16.4822235107421911
 31
0.0
  0
LINE
  5
4A6
100
AcDbEntity
100
AcDbLine
  8
CADDY_2
 62
256
370
-1
  6
CONTINUOUS
 10
207.7632446289061932
 20
16.4822235107421911
 30
0.0
 11
207.8371124267578125
 21
16.4822235107421911
 31
0.0
  0
LINE
  5
4A7
100
AcDbEntity
100
AcDbLine
  8
CADDY_2
 62
256
370
-1
  6
CONTINUOUS
 10
208.35400390625
 20
16.4822235107421911
 30
0.0
 11
208.4278411865234091
 21
16.4822235107421911
 31
0.0
  0
LINE
  5
4A8
100
AcDbEntity
100
AcDbLine
  8
CADDY_2
 62
256
370
-1
  6
CONTINUOUS
 10
208.5755157470703125
 20
16.4822235107421911
 30
0.0
 11
208.6863098144530966
 21
16.4822235107421911
 31
0.0
  0
LINE
  5
4A9
100
AcDbEntity
100
AcDbLine
  8
CADDY_2
 62
256
370
-1
  6
CONTINUOUS
 10
208.9447631835938068
 20
16.4822235107421911
 30
0.0
 11
209.0186157226561932
 21
16.4822235107421911
 31
0.0
  0
LINE
  5
4AA
100
AcDbEntity
100
AcDbLine
  8
CADDY_2
 62
256
370
-1
  6
CONTINUOUS
 10
209.5354919433594034
 20
16.4822235107421911
 30
0.0
 11
209.6462707519530966
 21
16.4822235107421911
 31
0.0
  0
LINE
  5
4AB
100
AcDbEntity
100
AcDbLine
  8
CADDY_2
 62
256
370
-1
  6
CONTINUOUS
 10
209.8308715820311932
 20
16.4822235107421911
 30
0.0
 11
209.8677825927734091
 21
16.4822235107421911
 31
0.0
  0
LINE
  5
4AC
100
AcDbEntity
100
AcDbLine
  8
CADDY_2
 62
256
370
-1
  6
CONTINUOUS
 10
210.0154724121094034
 20
16.4822235107421911
 30
0.0
 11
210.1262512207030966
 21
16.4822235107421911
 31
0.0
  0
LINE
  5
4AD
100
AcDbEntity
100
AcDbLine
  8
CADDY_2
 62
256
370
-1
  6
CONTINUOUS
 10
210.2001190185546875
 20
16.4822235107421911
 30
0.0
 11
210.2370300292969034
 21
16.4822235107421911
 31
0.0
  0
LINE
  5
4AE
100
AcDbEntity
100
AcDbLine
  8
CADDY_2
 62
256
370
-1
  6
CONTINUOUS
 10
210.3847351074219034
 20
16.4822235107421911
 30
0.0
 11
210.4585418701171875
 21
16.4822235107421911
 31
0.0
  0
LINE
  5
4AF
100
AcDbEntity
100
AcDbLine
  8
CADDY_2
 62
256
370
-1
  6
CONTINUOUS
 10
210.7908325195311932
 20
16.4822235107421911
 30
0.0
 11
210.8277435302734091
 21
16.4822235107421911
 31
0.0
  0
LINE
  5
4B0
100
AcDbEntity
100
AcDbLine
  8
CADDY_2
 62
256
370
-1
  6
CONTINUOUS
 10
211.0862274169921875
 20
16.4822235107421911
 30
0.0
 11
211.1970062255859091
 21
16.4822235107421911
 31
0.0
  0
LINE
  5
4B1
100
AcDbEntity
100
AcDbLine
  8
CADDY_2
 62
256
370
-1
  6
CONTINUOUS
 10
211.7508087158203125
 20
16.4822235107421911
 30
0.0
 11
211.8246765136719034
 21
16.4822235107421911
 31
0.0
  0
LINE
  5
4B2
100
AcDbEntity
100
AcDbLine
  8
CADDY_2
 62
256
370
-1
  6
CONTINUOUS
 10
211.9723358154296875
 20
16.4822235107421911
 30
0.0
 11
212.0831298828125
 21
16.4822235107421911
 31
0.0
  0
LINE
  5
4B3
100
AcDbEntity
100
AcDbLine
  8
CADDY_2
 62
256
370
-1
  6
CONTINUOUS
 10
212.7846527099609091
 20
16.4822235107421911
 30
0.0
 11
212.8584747314453125
 21
16.4822235107421911
 31
0.0
  0
LINE
  5
4B4
100
AcDbEntity
100
AcDbLine
  8
CADDY_2
 62
256
370
-1
  6
CONTINUOUS
 10
213.2276916503905966
 20
16.4822235107421911
 30
0.0
 11
213.3015289306640909
 21
16.4822235107421911
 31
0.0
  0
LINE
  5
4B5
100
AcDbEntity
100
AcDbLine
  8
CADDY_2
 62
256
370
-1
  6
CONTINUOUS
 10
213.6338043212890909
 20
16.4822235107421911
 30
0.0
 11
213.7076568603515909
 21
16.4822235107421911
 31
0.0
  0
LINE
  5
4B6
100
AcDbEntity
100
AcDbLine
  8
CADDY_2
 62
256
370
-1
  6
CONTINUOUS
 10
214.0030364990234091
 20
16.4822235107421911
 30
0.0
 11
214.0399780273438068
 21
16.4822235107421911
 31
0.0
  0
LINE
  5
4B7
100
AcDbEntity
100
AcDbLine
  8
CADDY_2
 62
256
370
-1
  6
CONTINUOUS
 10
214.2984313964844034
 20
16.4822235107421911
 30
0.0
 11
214.5199890136719034
 21
16.4822235107421911
 31
0.0
  0
LINE
  5
4B8
100
AcDbEntity
100
AcDbLine
  8
CADDY_2
 62
256
370
-1
  6
CONTINUOUS
 10
214.8153076171875
 20
16.4822235107421911
 30
0.0
 11
214.8892059326171875
 21
16.4822235107421911
 31
0.0
  0
LINE
  5
4B9
100
AcDbEntity
100
AcDbLine
  8
CADDY_2
 62
256
370
-1
  6
CONTINUOUS
 10
215.0368804931640909
 20
16.4822235107421911
 30
0.0
 11
215.0738067626953125
 21
16.4822235107421911
 31
0.0
  0
LINE
  5
4BA
100
AcDbEntity
100
AcDbLine
  8
CADDY_2
 62
256
370
-1
  6
CONTINUOUS
 10
215.4430084228515909
 20
16.4822235107421911
 30
0.0
 11
215.4799652099609091
 21
16.4822235107421911
 31
0.0
  0
LINE
  5
4BB
100
AcDbEntity
100
AcDbLine
  8
CADDY_2
 62
256
370
-1
  6
CONTINUOUS
 10
215.7383728027344034
 20
16.4822235107421911
 30
0.0
 11
215.9599151611328125
 21
16.4822235107421911
 31
0.0
  0
LINE
  5
4BC
100
AcDbEntity
100
AcDbLine
  8
CADDY_2
 62
256
370
-1
  6
CONTINUOUS
 10
216.2552642822265909
 20
16.4822235107421911
 30
0.0
 11
216.3291168212890909
 21
16.4822235107421911
 31
0.0
  0
LINE
  5
4BD
100
AcDbEntity
100
AcDbLine
  8
CADDY_2
 62
256
370
-1
  6
CONTINUOUS
 10
216.6245269775390909
 20
16.4822235107421911
 30
0.0
 11
216.7352752685546875
 21
16.4822235107421911
 31
0.0
  0
LINE
  5
4BE
100
AcDbEntity
100
AcDbLine
  8
CADDY_2
 62
256
370
-1
  6
CONTINUOUS
 10
216.9568176269530966
 20
16.4822235107421911
 30
0.0
 11
216.9937438964844034
 21
16.4822235107421911
 31
0.0
  0
LINE
  5
4BF
100
AcDbEntity
100
AcDbLine
  8
CADDY_2
 62
256
370
-1
  6
CONTINUOUS
 10
217.2521820068359091
 20
16.4822235107421911
 30
0.0
 11
217.3629455566405966
 21
16.4822235107421911
 31
0.0
  0
LINE
  5
4C0
100
AcDbEntity
100
AcDbLine
  8
CADDY_2
 62
256
370
-1
  6
CONTINUOUS
 10
217.6952514648438068
 20
16.4822235107421911
 30
0.0
 11
217.7690887451171875
 21
16.4822235107421911
 31
0.0
  0
LINE
  5
4C1
100
AcDbEntity
100
AcDbLine
  8
CADDY_2
 62
256
370
-1
  6
CONTINUOUS
 10
218.1383056640625
 20
16.4822235107421911
 30
0.0
 11
218.1751861572265909
 21
16.4822235107421911
 31
0.0
  0
LINE
  5
4C2
100
AcDbEntity
100
AcDbLine
  8
CADDY_2
 62
256
370
-1
  6
CONTINUOUS
 10
218.6552124023438068
 20
16.4822235107421911
 30
0.0
 11
218.7659606933594034
 21
16.4822235107421911
 31
0.0
  0
LINE
  5
4C3
100
AcDbEntity
100
AcDbLine
  8
CADDY_2
 62
256
370
-1
  6
CONTINUOUS
 10
219.0613708496094034
 20
16.4822235107421911
 30
0.0
 11
219.3567199707030966
 21
16.4822235107421911
 31
0.0
  0
LINE
  5
4C4
100
AcDbEntity
100
AcDbLine
  8
CADDY_2
 62
256
370
-1
  6
CONTINUOUS
 10
219.5044097900390909
 20
16.4822235107421911
 30
0.0
 11
219.5413360595703125
 21
16.4822235107421911
 31
0.0
  0
LINE
  5
4C5
100
AcDbEntity
100
AcDbLine
  8
CADDY_2
 62
256
370
-1
  6
CONTINUOUS
 10
219.6890106201171875
 20
16.4822235107421911
 30
0.0
 11
219.7997894287109091
 21
16.4822235107421911
 31
0.0
  0
LINE
  5
4C6
100
AcDbEntity
100
AcDbLine
  8
CADDY_2
 62
256
370
-1
  6
CONTINUOUS
 10
219.8736267089844034
 20
16.4822235107421911
 30
0.0
 11
219.9105377197265909
 21
16.4822235107421911
 31
0.0
  0
LINE
  5
4C7
100
AcDbEntity
100
AcDbLine
  8
CADDY_2
 62
256
370
-1
  6
CONTINUOUS
 10
220.0582275390625
 20
16.4822235107421911
 30
0.0
 11
220.132080078125
 21
16.4822235107421911
 31
0.0
  0
LINE
  5
4C8
100
AcDbEntity
100
AcDbLine
  8
CADDY_2
 62
256
370
-1
  6
CONTINUOUS
 10
220.4643859863280966
 20
16.4822235107421911
 30
0.0
 11
220.5382232666015909
 21
16.4822235107421911
 31
0.0
  0
LINE
  5
4C9
100
AcDbEntity
100
AcDbLine
  8
CADDY_2
 62
256
370
-1
  6
CONTINUOUS
 10
220.8335876464844034
 20
16.4822235107421911
 30
0.0
 11
220.9443817138671875
 21
16.4822235107421911
 31
0.0
  0
LINE
  5
4CA
100
AcDbEntity
100
AcDbLine
  8
CADDY_2
 62
256
370
-1
  6
CONTINUOUS
 10
221.1659088134765909
 20
16.4822235107421911
 30
0.0
 11
221.2397613525390909
 21
16.4822235107421911
 31
0.0
  0
LINE
  5
4CB
100
AcDbEntity
100
AcDbLine
  8
CADDY_2
 62
256
370
-1
  6
CONTINUOUS
 10
221.6089630126953125
 20
16.4822235107421911
 30
0.0
 11
221.6828155517578125
 21
16.4822235107421911
 31
0.0
  0
LINE
  5
4CC
100
AcDbEntity
100
AcDbLine
  8
CADDY_2
 62
256
370
-1
  6
CONTINUOUS
 10
204.9571990966796875
 20
16.5189361572265589
 30
0.0
 11
205.0310516357421875
 21
16.5189361572265589
 31
0.0
  0
LINE
  5
4CD
100
AcDbEntity
100
AcDbLine
  8
CADDY_2
 62
256
370
-1
  6
CONTINUOUS
 10
205.1418151855469034
 20
16.5189361572265589
 30
0.0
 11
205.2156524658203125
 21
16.5189361572265589
 31
0.0
  0
LINE
  5
4CE
100
AcDbEntity
100
AcDbLine
  8
CADDY_2
 62
256
370
-1
  6
CONTINUOUS
 10
205.6218109130859091
 20
16.5189361572265589
 30
0.0
 11
205.6956176757811932
 21
16.5189361572265589
 31
0.0
  0
LINE
  5
4CF
100
AcDbEntity
100
AcDbLine
  8
CADDY_2
 62
256
370
-1
  6
CONTINUOUS
 10
206.2494659423828125
 20
16.5189361572265589
 30
0.0
 11
206.3233032226561932
 21
16.5189361572265589
 31
0.0
  0
LINE
  5
4D0
100
AcDbEntity
100
AcDbLine
  8
CADDY_2
 62
256
370
-1
  6
CONTINUOUS
 10
206.4340667724609091
 20
16.5189361572265589
 30
0.0
 11
206.5079040527344034
 21
16.5189361572265589
 31
0.0
  0
LINE
  5
4D1
100
AcDbEntity
100
AcDbLine
  8
CADDY_2
 62
256
370
-1
  6
CONTINUOUS
 10
206.9140625
 20
16.5189361572265589
 30
0.0
 11
206.9878692626953125
 21
16.5189361572265589
 31
0.0
  0
LINE
  5
4D2
100
AcDbEntity
100
AcDbLine
  8
CADDY_2
 62
256
370
-1
  6
CONTINUOUS
 10
207.0986785888671875
 20
16.5189361572265589
 30
0.0
 11
207.2094421386719034
 21
16.5189361572265589
 31
0.0
  0
LINE
  5
4D3
100
AcDbEntity
100
AcDbLine
  8
CADDY_2
 62
256
370
-1
  6
CONTINUOUS
 10
207.8001556396484091
 20
16.5189361572265589
 30
0.0
 11
207.8740234375
 21
16.5189361572265589
 31
0.0
  0
LINE
  5
4D4
100
AcDbEntity
100
AcDbLine
  8
CADDY_2
 62
256
370
-1
  6
CONTINUOUS
 10
208.3909149169921875
 20
16.5189361572265589
 30
0.0
 11
208.4647979736328125
 21
16.5189361572265589
 31
0.0
  0
LINE
  5
4D5
100
AcDbEntity
100
AcDbLine
  8
CADDY_2
 62
256
370
-1
  6
CONTINUOUS
 10
208.5755157470703125
 20
16.5189361572265589
 30
0.0
 11
208.6863098144530966
 21
16.5189361572265589
 31
0.0
  0
LINE
  5
4D6
100
AcDbEntity
100
AcDbLine
  8
CADDY_2
 62
256
370
-1
  6
CONTINUOUS
 10
208.9447631835938068
 20
16.5189361572265589
 30
0.0
 11
209.0555267333984091
 21
16.5189361572265589
 31
0.0
  0
LINE
  5
4D7
100
AcDbEntity
100
AcDbLine
  8
CADDY_2
 62
256
370
-1
  6
CONTINUOUS
 10
209.5354919433594034
 20
16.5189361572265589
 30
0.0
 11
209.6462707519530966
 21
16.5189361572265589
 31
0.0
  0
LINE
  5
4D8
100
AcDbEntity
100
AcDbLine
  8
CADDY_2
 62
256
370
-1
  6
CONTINUOUS
 10
209.8677825927734091
 20
16.5189361572265589
 30
0.0
 11
209.9047393798828125
 21
16.5189361572265589
 31
0.0
  0
LINE
  5
4D9
100
AcDbEntity
100
AcDbLine
  8
CADDY_2
 62
256
370
-1
  6
CONTINUOUS
 10
210.0154724121094034
 20
16.5189361572265589
 30
0.0
 11
210.1262512207030966
 21
16.5189361572265589
 31
0.0
  0
LINE
  5
4DA
100
AcDbEntity
100
AcDbLine
  8
CADDY_2
 62
256
370
-1
  6
CONTINUOUS
 10
210.2001190185546875
 20
16.5189361572265589
 30
0.0
 11
210.2739410400390909
 21
16.5189361572265589
 31
0.0
  0
LINE
  5
4DB
100
AcDbEntity
100
AcDbLine
  8
CADDY_2
 62
256
370
-1
  6
CONTINUOUS
 10
210.421630859375
 20
16.5189361572265589
 30
0.0
 11
210.4954528808594034
 21
16.5189361572265589
 31
0.0
  0
LINE
  5
4DC
100
AcDbEntity
100
AcDbLine
  8
CADDY_2
 62
256
370
-1
  6
CONTINUOUS
 10
210.8277435302734091
 20
16.5189361572265589
 30
0.0
 11
211.1600494384765909
 21
16.5189361572265589
 31
0.0
  0
LINE
  5
4DD
100
AcDbEntity
100
AcDbLine
  8
CADDY_2
 62
256
370
-1
  6
CONTINUOUS
 10
211.7138824462890909
 20
16.5189361572265589
 30
0.0
 11
211.8246765136719034
 21
16.5189361572265589
 31
0.0
  0
LINE
  5
4DE
100
AcDbEntity
100
AcDbLine
  8
CADDY_2
 62
256
370
-1
  6
CONTINUOUS
 10
212.00927734375
 20
16.5189361572265589
 30
0.0
 11
212.1200408935546875
 21
16.5189361572265589
 31
0.0
  0
LINE
  5
4DF
100
AcDbEntity
100
AcDbLine
  8
CADDY_2
 62
256
370
-1
  6
CONTINUOUS
 10
212.8215637207030966
 20
16.5189361572265589
 30
0.0
 11
212.8953857421875
 21
16.5189361572265589
 31
0.0
  0
LINE
  5
4E0
100
AcDbEntity
100
AcDbLine
  8
CADDY_2
 62
256
370
-1
  6
CONTINUOUS
 10
213.2646179199219034
 20
16.5189361572265589
 30
0.0
 11
213.3384552001953125
 21
16.5189361572265589
 31
0.0
  0
LINE
  5
4E1
100
AcDbEntity
100
AcDbLine
  8
CADDY_2
 62
256
370
-1
  6
CONTINUOUS
 10
213.6707305908203125
 20
16.5189361572265589
 30
0.0
 11
213.74462890625
 21
16.5189361572265589
 31
0.0
  0
LINE
  5
4E2
100
AcDbEntity
100
AcDbLine
  8
CADDY_2
 62
256
370
-1
  6
CONTINUOUS
 10
214.0399780273438068
 20
16.5189361572265589
 30
0.0
 11
214.076904296875
 21
16.5189361572265589
 31
0.0
  0
LINE
  5
4E3
100
AcDbEntity
100
AcDbLine
  8
CADDY_2
 62
256
370
-1
  6
CONTINUOUS
 10
214.2984313964844034
 20
16.5189361572265589
 30
0.0
 11
214.4091796875
 21
16.5189361572265589
 31
0.0
  0
LINE
  5
4E4
100
AcDbEntity
100
AcDbLine
  8
CADDY_2
 62
256
370
-1
  6
CONTINUOUS
 10
214.5199890136719034
 20
16.5189361572265589
 30
0.0
 11
214.556884765625
 21
16.5189361572265589
 31
0.0
  0
LINE
  5
4E5
100
AcDbEntity
100
AcDbLine
  8
CADDY_2
 62
256
370
-1
  6
CONTINUOUS
 10
214.8522644042969034
 20
16.5189361572265589
 30
0.0
 11
214.9261016845703125
 21
16.5189361572265589
 31
0.0
  0
LINE
  5
4E6
100
AcDbEntity
100
AcDbLine
  8
CADDY_2
 62
256
370
-1
  6
CONTINUOUS
 10
215.0368804931640909
 20
16.5189361572265589
 30
0.0
 11
215.1107025146484091
 21
16.5189361572265589
 31
0.0
  0
LINE
  5
4E7
100
AcDbEntity
100
AcDbLine
  8
CADDY_2
 62
256
370
-1
  6
CONTINUOUS
 10
215.4799652099609091
 20
16.5189361572265589
 30
0.0
 11
215.516845703125
 21
16.5189361572265589
 31
0.0
  0
LINE
  5
4E8
100
AcDbEntity
100
AcDbLine
  8
CADDY_2
 62
256
370
-1
  6
CONTINUOUS
 10
215.7383728027344034
 20
16.5189361572265589
 30
0.0
 11
215.8491668701171875
 21
16.5189361572265589
 31
0.0
  0
LINE
  5
4E9
100
AcDbEntity
100
AcDbLine
  8
CADDY_2
 62
256
370
-1
  6
CONTINUOUS
 10
215.9599151611328125
 20
16.5189361572265589
 30
0.0
 11
215.9968566894530966
 21
16.5189361572265589
 31
0.0
  0
LINE
  5
4EA
100
AcDbEntity
100
AcDbLine
  8
CADDY_2
 62
256
370
-1
  6
CONTINUOUS
 10
216.2922058105469034
 20
16.5189361572265589
 30
0.0
 11
216.3660583496094034
 21
16.5189361572265589
 31
0.0
  0
LINE
  5
4EB
100
AcDbEntity
100
AcDbLine
  8
CADDY_2
 62
256
370
-1
  6
CONTINUOUS
 10
216.6245269775390909
 20
16.5189361572265589
 30
0.0
 11
216.7352752685546875
 21
16.5189361572265589
 31
0.0
  0
LINE
  5
4EC
100
AcDbEntity
100
AcDbLine
  8
CADDY_2
 62
256
370
-1
  6
CONTINUOUS
 10
216.9937438964844034
 20
16.5189361572265589
 30
0.0
 11
217.3260192871094034
 21
16.5189361572265589
 31
0.0
  0
LINE
  5
4ED
100
AcDbEntity
100
AcDbLine
  8
CADDY_2
 62
256
370
-1
  6
CONTINUOUS
 10
217.732177734375
 20
16.5189361572265589
 30
0.0
 11
217.8059844970703125
 21
16.5189361572265589
 31
0.0
  0
LINE
  5
4EE
100
AcDbEntity
100
AcDbLine
  8
CADDY_2
 62
256
370
-1
  6
CONTINUOUS
 10
218.1751861572265909
 20
16.5189361572265589
 30
0.0
 11
218.212158203125
 21
16.5189361572265589
 31
0.0
  0
LINE
  5
4EF
100
AcDbEntity
100
AcDbLine
  8
CADDY_2
 62
256
370
-1
  6
CONTINUOUS
 10
218.6921539306640909
 20
16.5189361572265589
 30
0.0
 11
218.8028869628905966
 21
16.5189361572265589
 31
0.0
  0
LINE
  5
4F0
100
AcDbEntity
100
AcDbLine
  8
CADDY_2
 62
256
370
-1
  6
CONTINUOUS
 10
219.5413360595703125
 20
16.5189361572265589
 30
0.0
 11
219.5782470703125
 21
16.5189361572265589
 31
0.0
  0
LINE
  5
4F1
100
AcDbEntity
100
AcDbLine
  8
CADDY_2
 62
256
370
-1
  6
CONTINUOUS
 10
219.6890106201171875
 20
16.5189361572265589
 30
0.0
 11
219.7997894287109091
 21
16.5189361572265589
 31
0.0
  0
LINE
  5
4F2
100
AcDbEntity
100
AcDbLine
  8
CADDY_2
 62
256
370
-1
  6
CONTINUOUS
 10
219.8736267089844034
 20
16.5189361572265589
 30
0.0
 11
219.9474792480469034
 21
16.5189361572265589
 31
0.0
  0
LINE
  5
4F3
100
AcDbEntity
100
AcDbLine
  8
CADDY_2
 62
256
370
-1
  6
CONTINUOUS
 10
220.0951843261719034
 20
16.5189361572265589
 30
0.0
 11
220.1690063476561932
 21
16.5189361572265589
 31
0.0
  0
LINE
  5
4F4
100
AcDbEntity
100
AcDbLine
  8
CADDY_2
 62
256
370
-1
  6
CONTINUOUS
 10
220.5012969970703125
 20
16.5189361572265589
 30
0.0
 11
220.5751495361328125
 21
16.5189361572265589
 31
0.0
  0
LINE
  5
4F5
100
AcDbEntity
100
AcDbLine
  8
CADDY_2
 62
256
370
-1
  6
CONTINUOUS
 10
220.8335876464844034
 20
16.5189361572265589
 30
0.0
 11
220.9443817138671875
 21
16.5189361572265589
 31
0.0
  0
LINE
  5
4F6
100
AcDbEntity
100
AcDbLine
  8
CADDY_2
 62
256
370
-1
  6
CONTINUOUS
 10
221.2027893066405966
 20
16.5189361572265589
 30
0.0
 11
221.2766571044921875
 21
16.5189361572265589
 31
0.0
  0
LINE
  5
4F7
100
AcDbEntity
100
AcDbLine
  8
CADDY_2
 62
256
370
-1
  6
CONTINUOUS
 10
221.6458587646484091
 20
16.5189361572265589
 30
0.0
 11
221.7197418212890909
 21
16.5189361572265589
 31
0.0
  0
LINE
  5
4F8
100
AcDbEntity
100
AcDbLine
  8
CADDY_2
 62
256
370
-1
  6
CONTINUOUS
 10
204.9571990966796875
 20
16.5556335449218786
 30
0.0
 11
205.0310516357421875
 21
16.5556335449218786
 31
0.0
  0
LINE
  5
4F9
100
AcDbEntity
100
AcDbLine
  8
CADDY_2
 62
256
370
-1
  6
CONTINUOUS
 10
205.1418151855469034
 20
16.5556335449218786
 30
0.0
 11
205.2156524658203125
 21
16.5556335449218786
 31
0.0
  0
LINE
  5
4FA
100
AcDbEntity
100
AcDbLine
  8
CADDY_2
 62
256
370
-1
  6
CONTINUOUS
 10
205.6218109130859091
 20
16.5556335449218786
 30
0.0
 11
205.6956176757811932
 21
16.5556335449218786
 31
0.0
  0
LINE
  5
4FB
100
AcDbEntity
100
AcDbLine
  8
CADDY_2
 62
256
370
-1
  6
CONTINUOUS
 10
206.2494659423828125
 20
16.5556335449218786
 30
0.0
 11
206.3233032226561932
 21
16.5556335449218786
 31
0.0
  0
LINE
  5
4FC
100
AcDbEntity
100
AcDbLine
  8
CADDY_2
 62
256
370
-1
  6
CONTINUOUS
 10
206.4340667724609091
 20
16.5556335449218786
 30
0.0
 11
206.5079040527344034
 21
16.5556335449218786
 31
0.0
  0
LINE
  5
4FD
100
AcDbEntity
100
AcDbLine
  8
CADDY_2
 62
256
370
-1
  6
CONTINUOUS
 10
206.9140625
 20
16.5556335449218786
 30
0.0
 11
207.2094421386719034
 21
16.5556335449218786
 31
0.0
  0
LINE
  5
4FE
100
AcDbEntity
100
AcDbLine
  8
CADDY_2
 62
256
370
-1
  6
CONTINUOUS
 10
207.8001556396484091
 20
16.5556335449218786
 30
0.0
 11
207.8740234375
 21
16.5556335449218786
 31
0.0
  0
LINE
  5
4FF
100
AcDbEntity
100
AcDbLine
  8
CADDY_2
 62
256
370
-1
  6
CONTINUOUS
 10
208.3909149169921875
 20
16.5556335449218786
 30
0.0
 11
208.4647979736328125
 21
16.5556335449218786
 31
0.0
  0
LINE
  5
500
100
AcDbEntity
100
AcDbLine
  8
CADDY_2
 62
256
370
-1
  6
CONTINUOUS
 10
208.5386047363280966
 20
16.5556335449218786
 30
0.0
 11
208.7232055664061932
 21
16.5556335449218786
 31
0.0
  0
LINE
  5
501
100
AcDbEntity
100
AcDbLine
  8
CADDY_2
 62
256
370
-1
  6
CONTINUOUS
 10
208.9447631835938068
 20
16.5556335449218786
 30
0.0
 11
209.0555267333984091
 21
16.5556335449218786
 31
0.0
  0
LINE
  5
502
100
AcDbEntity
100
AcDbLine
  8
CADDY_2
 62
256
370
-1
  6
CONTINUOUS
 10
209.5724487304688068
 20
16.5556335449218786
 30
0.0
 11
209.6831817626953125
 21
16.5556335449218786
 31
0.0
  0
LINE
  5
503
100
AcDbEntity
100
AcDbLine
  8
CADDY_2
 62
256
370
-1
  6
CONTINUOUS
 10
209.8677825927734091
 20
16.5556335449218786
 30
0.0
 11
209.9047393798828125
 21
16.5556335449218786
 31
0.0
  0
LINE
  5
504
100
AcDbEntity
100
AcDbLine
  8
CADDY_2
 62
256
370
-1
  6
CONTINUOUS
 10
210.0154724121094034
 20
16.5556335449218786
 30
0.0
 11
210.1262512207030966
 21
16.5556335449218786
 31
0.0
  0
LINE
  5
505
100
AcDbEntity
100
AcDbLine
  8
CADDY_2
 62
256
370
-1
  6
CONTINUOUS
 10
210.2370300292969034
 20
16.5556335449218786
 30
0.0
 11
210.3108520507811932
 21
16.5556335449218786
 31
0.0
  0
LINE
  5
506
100
AcDbEntity
100
AcDbLine
  8
CADDY_2
 62
256
370
-1
  6
CONTINUOUS
 10
210.421630859375
 20
16.5556335449218786
 30
0.0
 11
210.4954528808594034
 21
16.5556335449218786
 31
0.0
  0
LINE
  5
507
100
AcDbEntity
100
AcDbLine
  8
CADDY_2
 62
256
370
-1
  6
CONTINUOUS
 10
210.8647003173828125
 20
16.5556335449218786
 30
0.0
 11
210.9016265869140909
 21
16.5556335449218786
 31
0.0
  0
LINE
  5
508
100
AcDbEntity
100
AcDbLine
  8
CADDY_2
 62
256
370
-1
  6
CONTINUOUS
 10
211.0862274169921875
 20
16.5556335449218786
 30
0.0
 11
211.1600494384765909
 21
16.5556335449218786
 31
0.0
  0
LINE
  5
509
100
AcDbEntity
100
AcDbLine
  8
CADDY_2
 62
256
370
-1
  6
CONTINUOUS
 10
211.6400756835938068
 20
16.5556335449218786
 30
0.0
 11
211.8246765136719034
 21
16.5556335449218786
 31
0.0
  0
LINE
  5
50A
100
AcDbEntity
100
AcDbLine
  8
CADDY_2
 62
256
370
-1
  6
CONTINUOUS
 10
212.00927734375
 20
16.5556335449218786
 30
0.0
 11
212.1200408935546875
 21
16.5556335449218786
 31
0.0
  0
LINE
  5
50B
100
AcDbEntity
100
AcDbLine
  8
CADDY_2
 62
256
370
-1
  6
CONTINUOUS
 10
212.8215637207030966
 20
16.5556335449218786
 30
0.0
 11
212.8953857421875
 21
16.5556335449218786
 31
0.0
  0
LINE
  5
50C
100
AcDbEntity
100
AcDbLine
  8
CADDY_2
 62
256
370
-1
  6
CONTINUOUS
 10
213.2646179199219034
 20
16.5556335449218786
 30
0.0
 11
213.3384552001953125
 21
16.5556335449218786
 31
0.0
  0
LINE
  5
50D
100
AcDbEntity
100
AcDbLine
  8
CADDY_2
 62
256
370
-1
  6
CONTINUOUS
 10
213.6707305908203125
 20
16.5556335449218786
 30
0.0
 11
213.74462890625
 21
16.5556335449218786
 31
0.0
  0
LINE
  5
50E
100
AcDbEntity
100
AcDbLine
  8
CADDY_2
 62
256
370
-1
  6
CONTINUOUS
 10
214.0399780273438068
 20
16.5556335449218786
 30
0.0
 11
214.076904296875
 21
16.5556335449218786
 31
0.0
  0
LINE
  5
50F
100
AcDbEntity
100
AcDbLine
  8
CADDY_2
 62
256
370
-1
  6
CONTINUOUS
 10
214.2615051269530966
 20
16.5556335449218786
 30
0.0
 11
214.4091796875
 21
16.5556335449218786
 31
0.0
  0
LINE
  5
510
100
AcDbEntity
100
AcDbLine
  8
CADDY_2
 62
256
370
-1
  6
CONTINUOUS
 10
214.5199890136719034
 20
16.5556335449218786
 30
0.0
 11
214.556884765625
 21
16.5556335449218786
 31
0.0
  0
LINE
  5
511
100
AcDbEntity
100
AcDbLine
  8
CADDY_2
 62
256
370
-1
  6
CONTINUOUS
 10
214.8522644042969034
 20
16.5556335449218786
 30
0.0
 11
214.9261016845703125
 21
16.5556335449218786
 31
0.0
  0
LINE
  5
512
100
AcDbEntity
100
AcDbLine
  8
CADDY_2
 62
256
370
-1
  6
CONTINUOUS
 10
215.0368804931640909
 20
16.5556335449218786
 30
0.0
 11
215.1107025146484091
 21
16.5556335449218786
 31
0.0
  0
LINE
  5
513
100
AcDbEntity
100
AcDbLine
  8
CADDY_2
 62
256
370
-1
  6
CONTINUOUS
 10
215.4799652099609091
 20
16.5556335449218786
 30
0.0
 11
215.516845703125
 21
16.5556335449218786
 31
0.0
  0
LINE
  5
514
100
AcDbEntity
100
AcDbLine
  8
CADDY_2
 62
256
370
-1
  6
CONTINUOUS
 10
215.7014617919921875
 20
16.5556335449218786
 30
0.0
 11
215.8491668701171875
 21
16.5556335449218786
 31
0.0
  0
LINE
  5
515
100
AcDbEntity
100
AcDbLine
  8
CADDY_2
 62
256
370
-1
  6
CONTINUOUS
 10
215.9599151611328125
 20
16.5556335449218786
 30
0.0
 11
215.9968566894530966
 21
16.5556335449218786
 31
0.0
  0
LINE
  5
516
100
AcDbEntity
100
AcDbLine
  8
CADDY_2
 62
256
370
-1
  6
CONTINUOUS
 10
216.2922058105469034
 20
16.5556335449218786
 30
0.0
 11
216.3660583496094034
 21
16.5556335449218786
 31
0.0
  0
LINE
  5
517
100
AcDbEntity
100
AcDbLine
  8
CADDY_2
 62
256
370
-1
  6
CONTINUOUS
 10
216.5875854492188068
 20
16.5556335449218786
 30
0.0
 11
216.7352752685546875
 21
16.5556335449218786
 31
0.0
  0
LINE
  5
518
100
AcDbEntity
100
AcDbLine
  8
CADDY_2
 62
256
370
-1
  6
CONTINUOUS
 10
217.0306091308594034
 20
16.5556335449218786
 30
0.0
 11
217.0675811767578125
 21
16.5556335449218786
 31
0.0
  0
LINE
  5
519
100
AcDbEntity
100
AcDbLine
  8
CADDY_2
 62
256
370
-1
  6
CONTINUOUS
 10
217.2521820068359091
 20
16.5556335449218786
 30
0.0
 11
217.3260192871094034
 21
16.5556335449218786
 31
0.0
  0
LINE
  5
51A
100
AcDbEntity
100
AcDbLine
  8
CADDY_2
 62
256
370
-1
  6
CONTINUOUS
 10
217.732177734375
 20
16.5556335449218786
 30
0.0
 11
217.8059844970703125
 21
16.5556335449218786
 31
0.0
  0
LINE
  5
51B
100
AcDbEntity
100
AcDbLine
  8
CADDY_2
 62
256
370
-1
  6
CONTINUOUS
 10
218.1751861572265909
 20
16.5556335449218786
 30
0.0
 11
218.212158203125
 21
16.5556335449218786
 31
0.0
  0
LINE
  5
51C
100
AcDbEntity
100
AcDbLine
  8
CADDY_2
 62
256
370
-1
  6
CONTINUOUS
 10
218.6921539306640909
 20
16.5556335449218786
 30
0.0
 11
218.8028869628905966
 21
16.5556335449218786
 31
0.0
  0
LINE
  5
51D
100
AcDbEntity
100
AcDbLine
  8
CADDY_2
 62
256
370
-1
  6
CONTINUOUS
 10
219.5413360595703125
 20
16.5556335449218786
 30
0.0
 11
219.5782470703125
 21
16.5556335449218786
 31
0.0
  0
LINE
  5
51E
100
AcDbEntity
100
AcDbLine
  8
CADDY_2
 62
256
370
-1
  6
CONTINUOUS
 10
219.6890106201171875
 20
16.5556335449218786
 30
0.0
 11
219.7997894287109091
 21
16.5556335449218786
 31
0.0
  0
LINE
  5
51F
100
AcDbEntity
100
AcDbLine
  8
CADDY_2
 62
256
370
-1
  6
CONTINUOUS
 10
219.9105377197265909
 20
16.5556335449218786
 30
0.0
 11
219.9844055175780966
 21
16.5556335449218786
 31
0.0
  0
LINE
  5
520
100
AcDbEntity
100
AcDbLine
  8
CADDY_2
 62
256
370
-1
  6
CONTINUOUS
 10
220.0951843261719034
 20
16.5556335449218786
 30
0.0
 11
220.1690063476561932
 21
16.5556335449218786
 31
0.0
  0
LINE
  5
521
100
AcDbEntity
100
AcDbLine
  8
CADDY_2
 62
256
370
-1
  6
CONTINUOUS
 10
220.5012969970703125
 20
16.5556335449218786
 30
0.0
 11
220.5751495361328125
 21
16.5556335449218786
 31
0.0
  0
LINE
  5
522
100
AcDbEntity
100
AcDbLine
  8
CADDY_2
 62
256
370
-1
  6
CONTINUOUS
 10
220.7966918945311932
 20
16.5556335449218786
 30
0.0
 11
220.9443817138671875
 21
16.5556335449218786
 31
0.0
  0
LINE
  5
523
100
AcDbEntity
100
AcDbLine
  8
CADDY_2
 62
256
370
-1
  6
CONTINUOUS
 10
221.2027893066405966
 20
16.5556335449218786
 30
0.0
 11
221.2766571044921875
 21
16.5556335449218786
 31
0.0
  0
LINE
  5
524
100
AcDbEntity
100
AcDbLine
  8
CADDY_2
 62
256
370
-1
  6
CONTINUOUS
 10
221.6458587646484091
 20
16.5556335449218786
 30
0.0
 11
221.7197418212890909
 21
16.5556335449218786
 31
0.0
  0
LINE
  5
525
100
AcDbEntity
100
AcDbLine
  8
CADDY_2
 62
256
370
-1
  6
CONTINUOUS
 10
204.9571990966796875
 20
16.59234619140625
 30
0.0
 11
205.2156524658203125
 21
16.59234619140625
 31
0.0
  0
LINE
  5
526
100
AcDbEntity
100
AcDbLine
  8
CADDY_2
 62
256
370
-1
  6
CONTINUOUS
 10
205.6218109130859091
 20
16.59234619140625
 30
0.0
 11
205.6956176757811932
 21
16.59234619140625
 31
0.0
  0
LINE
  5
527
100
AcDbEntity
100
AcDbLine
  8
CADDY_2
 62
256
370
-1
  6
CONTINUOUS
 10
206.2494659423828125
 20
16.59234619140625
 30
0.0
 11
206.5079040527344034
 21
16.59234619140625
 31
0.0
  0
LINE
  5
528
100
AcDbEntity
100
AcDbLine
  8
CADDY_2
 62
256
370
-1
  6
CONTINUOUS
 10
206.9140625
 20
16.59234619140625
 30
0.0
 11
207.1725158691405966
 21
16.59234619140625
 31
0.0
  0
LINE
  5
529
100
AcDbEntity
100
AcDbLine
  8
CADDY_2
 62
256
370
-1
  6
CONTINUOUS
 10
207.8001556396484091
 20
16.59234619140625
 30
0.0
 11
207.8740234375
 21
16.59234619140625
 31
0.0
  0
LINE
  5
52A
100
AcDbEntity
100
AcDbLine
  8
CADDY_2
 62
256
370
-1
  6
CONTINUOUS
 10
208.3909149169921875
 20
16.59234619140625
 30
0.0
 11
208.6863098144530966
 21
16.59234619140625
 31
0.0
  0
LINE
  5
52B
100
AcDbEntity
100
AcDbLine
  8
CADDY_2
 62
256
370
-1
  6
CONTINUOUS
 10
208.9447631835938068
 20
16.59234619140625
 30
0.0
 11
209.0555267333984091
 21
16.59234619140625
 31
0.0
  0
LINE
  5
52C
100
AcDbEntity
100
AcDbLine
  8
CADDY_2
 62
256
370
-1
  6
CONTINUOUS
 10
209.5724487304688068
 20
16.59234619140625
 30
0.0
 11
209.6831817626953125
 21
16.59234619140625
 31
0.0
  0
LINE
  5
52D
100
AcDbEntity
100
AcDbLine
  8
CADDY_2
 62
256
370
-1
  6
CONTINUOUS
 10
209.8677825927734091
 20
16.59234619140625
 30
0.0
 11
209.9047393798828125
 21
16.59234619140625
 31
0.0
  0
LINE
  5
52E
100
AcDbEntity
100
AcDbLine
  8
CADDY_2
 62
256
370
-1
  6
CONTINUOUS
 10
210.0154724121094034
 20
16.59234619140625
 30
0.0
 11
210.1262512207030966
 21
16.59234619140625
 31
0.0
  0
LINE
  5
52F
100
AcDbEntity
100
AcDbLine
  8
CADDY_2
 62
256
370
-1
  6
CONTINUOUS
 10
210.2739410400390909
 20
16.59234619140625
 30
0.0
 11
210.3477935791015909
 21
16.59234619140625
 31
0.0
  0
LINE
  5
530
100
AcDbEntity
100
AcDbLine
  8
CADDY_2
 62
256
370
-1
  6
CONTINUOUS
 10
210.421630859375
 20
16.59234619140625
 30
0.0
 11
210.4954528808594034
 21
16.59234619140625
 31
0.0
  0
LINE
  5
531
100
AcDbEntity
100
AcDbLine
  8
CADDY_2
 62
256
370
-1
  6
CONTINUOUS
 10
210.8647003173828125
 20
16.59234619140625
 30
0.0
 11
210.9385528564453125
 21
16.59234619140625
 31
0.0
  0
LINE
  5
532
100
AcDbEntity
100
AcDbLine
  8
CADDY_2
 62
256
370
-1
  6
CONTINUOUS
 10
211.0862274169921875
 20
16.59234619140625
 30
0.0
 11
211.1600494384765909
 21
16.59234619140625
 31
0.0
  0
LINE
  5
533
100
AcDbEntity
100
AcDbLine
  8
CADDY_2
 62
256
370
-1
  6
CONTINUOUS
 10
211.6031036376953125
 20
16.59234619140625
 30
0.0
 11
211.7877044677734091
 21
16.59234619140625
 31
0.0
  0
LINE
  5
534
100
AcDbEntity
100
AcDbLine
  8
CADDY_2
 62
256
370
-1
  6
CONTINUOUS
 10
212.00927734375
 20
16.59234619140625
 30
0.0
 11
212.1200408935546875
 21
16.59234619140625
 31
0.0
  0
LINE
  5
535
100
AcDbEntity
100
AcDbLine
  8
CADDY_2
 62
256
370
-1
  6
CONTINUOUS
 10
212.8215637207030966
 20
16.59234619140625
 30
0.0
 11
213.3384552001953125
 21
16.59234619140625
 31
0.0
  0
LINE
  5
536
100
AcDbEntity
100
AcDbLine
  8
CADDY_2
 62
256
370
-1
  6
CONTINUOUS
 10
213.6707305908203125
 20
16.59234619140625
 30
0.0
 11
213.74462890625
 21
16.59234619140625
 31
0.0
  0
LINE
  5
537
100
AcDbEntity
100
AcDbLine
  8
CADDY_2
 62
256
370
-1
  6
CONTINUOUS
 10
214.0399780273438068
 20
16.59234619140625
 30
0.0
 11
214.076904296875
 21
16.59234619140625
 31
0.0
  0
LINE
  5
538
100
AcDbEntity
100
AcDbLine
  8
CADDY_2
 62
256
370
-1
  6
CONTINUOUS
 10
214.2615051269530966
 20
16.59234619140625
 30
0.0
 11
214.3722839355469034
 21
16.59234619140625
 31
0.0
  0
LINE
  5
539
100
AcDbEntity
100
AcDbLine
  8
CADDY_2
 62
256
370
-1
  6
CONTINUOUS
 10
214.5199890136719034
 20
16.59234619140625
 30
0.0
 11
214.556884765625
 21
16.59234619140625
 31
0.0
  0
LINE
  5
53A
100
AcDbEntity
100
AcDbLine
  8
CADDY_2
 62
256
370
-1
  6
CONTINUOUS
 10
214.8522644042969034
 20
16.59234619140625
 30
0.0
 11
215.1107025146484091
 21
16.59234619140625
 31
0.0
  0
LINE
  5
53B
100
AcDbEntity
100
AcDbLine
  8
CADDY_2
 62
256
370
-1
  6
CONTINUOUS
 10
215.4799652099609091
 20
16.59234619140625
 30
0.0
 11
215.516845703125
 21
16.59234619140625
 31
0.0
  0
LINE
  5
53C
100
AcDbEntity
100
AcDbLine
  8
CADDY_2
 62
256
370
-1
  6
CONTINUOUS
 10
215.7014617919921875
 20
16.59234619140625
 30
0.0
 11
215.8122406005859091
 21
16.59234619140625
 31
0.0
  0
LINE
  5
53D
100
AcDbEntity
100
AcDbLine
  8
CADDY_2
 62
256
370
-1
  6
CONTINUOUS
 10
215.9599151611328125
 20
16.59234619140625
 30
0.0
 11
215.9968566894530966
 21
16.59234619140625
 31
0.0
  0
LINE
  5
53E
100
AcDbEntity
100
AcDbLine
  8
CADDY_2
 62
256
370
-1
  6
CONTINUOUS
 10
216.2922058105469034
 20
16.59234619140625
 30
0.0
 11
216.6983489990234091
 21
16.59234619140625
 31
0.0
  0
LINE
  5
53F
100
AcDbEntity
100
AcDbLine
  8
CADDY_2
 62
256
370
-1
  6
CONTINUOUS
 10
217.0306091308594034
 20
16.59234619140625
 30
0.0
 11
217.1044921875
 21
16.59234619140625
 31
0.0
  0
LINE
  5
540
100
AcDbEntity
100
AcDbLine
  8
CADDY_2
 62
256
370
-1
  6
CONTINUOUS
 10
217.2521820068359091
 20
16.59234619140625
 30
0.0
 11
217.3260192871094034
 21
16.59234619140625
 31
0.0
  0
LINE
  5
541
100
AcDbEntity
100
AcDbLine
  8
CADDY_2
 62
256
370
-1
  6
CONTINUOUS
 10
217.732177734375
 20
16.59234619140625
 30
0.0
 11
217.8059844970703125
 21
16.59234619140625
 31
0.0
  0
LINE
  5
542
100
AcDbEntity
100
AcDbLine
  8
CADDY_2
 62
256
370
-1
  6
CONTINUOUS
 10
218.1751861572265909
 20
16.59234619140625
 30
0.0
 11
218.212158203125
 21
16.59234619140625
 31
0.0
  0
LINE
  5
543
100
AcDbEntity
100
AcDbLine
  8
CADDY_2
 62
256
370
-1
  6
CONTINUOUS
 10
218.6921539306640909
 20
16.59234619140625
 30
0.0
 11
218.8028869628905966
 21
16.59234619140625
 31
0.0
  0
LINE
  5
544
100
AcDbEntity
100
AcDbLine
  8
CADDY_2
 62
256
370
-1
  6
CONTINUOUS
 10
219.5413360595703125
 20
16.59234619140625
 30
0.0
 11
219.5782470703125
 21
16.59234619140625
 31
0.0
  0
LINE
  5
545
100
AcDbEntity
100
AcDbLine
  8
CADDY_2
 62
256
370
-1
  6
CONTINUOUS
 10
219.6890106201171875
 20
16.59234619140625
 30
0.0
 11
219.7997894287109091
 21
16.59234619140625
 31
0.0
  0
LINE
  5
546
100
AcDbEntity
100
AcDbLine
  8
CADDY_2
 62
256
370
-1
  6
CONTINUOUS
 10
219.9474792480469034
 20
16.59234619140625
 30
0.0
 11
220.0213317871094034
 21
16.59234619140625
 31
0.0
  0
LINE
  5
547
100
AcDbEntity
100
AcDbLine
  8
CADDY_2
 62
256
370
-1
  6
CONTINUOUS
 10
220.0951843261719034
 20
16.59234619140625
 30
0.0
 11
220.1690063476561932
 21
16.59234619140625
 31
0.0
  0
LINE
  5
548
100
AcDbEntity
100
AcDbLine
  8
CADDY_2
 62
256
370
-1
  6
CONTINUOUS
 10
220.5012969970703125
 20
16.59234619140625
 30
0.0
 11
220.9074554443359091
 21
16.59234619140625
 31
0.0
  0
LINE
  5
549
100
AcDbEntity
100
AcDbLine
  8
CADDY_2
 62
256
370
-1
  6
CONTINUOUS
 10
221.2027893066405966
 20
16.59234619140625
 30
0.0
 11
221.7197418212890909
 21
16.59234619140625
 31
0.0
  0
LINE
  5
54A
100
AcDbEntity
100
AcDbLine
  8
CADDY_2
 62
256
370
-1
  6
CONTINUOUS
 10
204.9941101074219034
 20
16.6290435791015589
 30
0.0
 11
205.0679473876953125
 21
16.6290435791015589
 31
0.0
  0
LINE
  5
54B
100
AcDbEntity
100
AcDbLine
  8
CADDY_2
 62
256
370
-1
  6
CONTINUOUS
 10
205.1787261962890909
 20
16.6290435791015589
 30
0.0
 11
205.2525482177734091
 21
16.6290435791015589
 31
0.0
  0
LINE
  5
54C
100
AcDbEntity
100
AcDbLine
  8
CADDY_2
 62
256
370
-1
  6
CONTINUOUS
 10
205.65869140625
 20
16.6290435791015589
 30
0.0
 11
205.7325592041015909
 21
16.6290435791015589
 31
0.0
  0
LINE
  5
54D
100
AcDbEntity
100
AcDbLine
  8
CADDY_2
 62
256
370
-1
  6
CONTINUOUS
 10
206.286376953125
 20
16.6290435791015589
 30
0.0
 11
206.3602142333984091
 21
16.6290435791015589
 31
0.0
  0
LINE
  5
54E
100
AcDbEntity
100
AcDbLine
  8
CADDY_2
 62
256
370
-1
  6
CONTINUOUS
 10
206.4709777832030966
 20
16.6290435791015589
 30
0.0
 11
206.5448608398438068
 21
16.6290435791015589
 31
0.0
  0
LINE
  5
54F
100
AcDbEntity
100
AcDbLine
  8
CADDY_2
 62
256
370
-1
  6
CONTINUOUS
 10
206.9509735107421875
 20
16.6290435791015589
 30
0.0
 11
207.1725158691405966
 21
16.6290435791015589
 31
0.0
  0
LINE
  5
550
100
AcDbEntity
100
AcDbLine
  8
CADDY_2
 62
256
370
-1
  6
CONTINUOUS
 10
207.8371124267578125
 20
16.6290435791015589
 30
0.0
 11
207.9109497070311932
 21
16.6290435791015589
 31
0.0
  0
LINE
  5
551
100
AcDbEntity
100
AcDbLine
  8
CADDY_2
 62
256
370
-1
  6
CONTINUOUS
 10
208.4278411865234091
 20
16.6290435791015589
 30
0.0
 11
208.5016937255859091
 21
16.6290435791015589
 31
0.0
  0
LINE
  5
552
100
AcDbEntity
100
AcDbLine
  8
CADDY_2
 62
256
370
-1
  6
CONTINUOUS
 10
208.6493988037109091
 20
16.6290435791015589
 30
0.0
 11
208.7601623535155966
 21
16.6290435791015589
 31
0.0
  0
LINE
  5
553
100
AcDbEntity
100
AcDbLine
  8
CADDY_2
 62
256
370
-1
  6
CONTINUOUS
 10
208.9816741943359091
 20
16.6290435791015589
 30
0.0
 11
209.0924530029296875
 21
16.6290435791015589
 31
0.0
  0
LINE
  5
554
100
AcDbEntity
100
AcDbLine
  8
CADDY_2
 62
256
370
-1
  6
CONTINUOUS
 10
209.5724487304688068
 20
16.6290435791015589
 30
0.0
 11
209.6831817626953125
 21
16.6290435791015589
 31
0.0
  0
LINE
  5
555
100
AcDbEntity
100
AcDbLine
  8
CADDY_2
 62
256
370
-1
  6
CONTINUOUS
 10
209.9047393798828125
 20
16.6290435791015589
 30
0.0
 11
209.941650390625
 21
16.6290435791015589
 31
0.0
  0
LINE
  5
556
100
AcDbEntity
100
AcDbLine
  8
CADDY_2
 62
256
370
-1
  6
CONTINUOUS
 10
210.0154724121094034
 20
16.6290435791015589
 30
0.0
 11
210.1262512207030966
 21
16.6290435791015589
 31
0.0
  0
LINE
  5
557
100
AcDbEntity
100
AcDbLine
  8
CADDY_2
 62
256
370
-1
  6
CONTINUOUS
 10
210.3108520507811932
 20
16.6290435791015589
 30
0.0
 11
210.3477935791015909
 21
16.6290435791015589
 31
0.0
  0
LINE
  5
558
100
AcDbEntity
100
AcDbLine
  8
CADDY_2
 62
256
370
-1
  6
CONTINUOUS
 10
210.4585418701171875
 20
16.6290435791015589
 30
0.0
 11
210.5324249267578125
 21
16.6290435791015589
 31
0.0
  0
LINE
  5
559
100
AcDbEntity
100
AcDbLine
  8
CADDY_2
 62
256
370
-1
  6
CONTINUOUS
 10
210.9016265869140909
 20
16.6290435791015589
 30
0.0
 11
210.9385528564453125
 21
16.6290435791015589
 31
0.0
  0
LINE
  5
55A
100
AcDbEntity
100
AcDbLine
  8
CADDY_2
 62
256
370
-1
  6
CONTINUOUS
 10
211.0862274169921875
 20
16.6290435791015589
 30
0.0
 11
211.1600494384765909
 21
16.6290435791015589
 31
0.0
  0
LINE
  5
55B
100
AcDbEntity
100
AcDbLine
  8
CADDY_2
 62
256
370
-1
  6
CONTINUOUS
 10
211.5662078857421875
 20
16.6290435791015589
 30
0.0
 11
211.7508087158203125
 21
16.6290435791015589
 31
0.0
  0
LINE
  5
55C
100
AcDbEntity
100
AcDbLine
  8
CADDY_2
 62
256
370
-1
  6
CONTINUOUS
 10
212.0462036132811932
 20
16.6290435791015589
 30
0.0
 11
212.156982421875
 21
16.6290435791015589
 31
0.0
  0
LINE
  5
55D
100
AcDbEntity
100
AcDbLine
  8
CADDY_2
 62
256
370
-1
  6
CONTINUOUS
 10
212.8584747314453125
 20
16.6290435791015589
 30
0.0
 11
212.9323120117188068
 21
16.6290435791015589
 31
0.0
  0
LINE
  5
55E
100
AcDbEntity
100
AcDbLine
  8
CADDY_2
 62
256
370
-1
  6
CONTINUOUS
 10
213.3015289306640909
 20
16.6290435791015589
 30
0.0
 11
213.3753814697265909
 21
16.6290435791015589
 31
0.0
  0
LINE
  5
55F
100
AcDbEntity
100
AcDbLine
  8
CADDY_2
 62
256
370
-1
  6
CONTINUOUS
 10
213.7076568603515909
 20
16.6290435791015589
 30
0.0
 11
213.7815246582030966
 21
16.6290435791015589
 31
0.0
  0
LINE
  5
560
100
AcDbEntity
100
AcDbLine
  8
CADDY_2
 62
256
370
-1
  6
CONTINUOUS
 10
214.076904296875
 20
16.6290435791015589
 30
0.0
 11
214.1138305664061932
 21
16.6290435791015589
 31
0.0
  0
LINE
  5
561
100
AcDbEntity
100
AcDbLine
  8
CADDY_2
 62
256
370
-1
  6
CONTINUOUS
 10
214.2245788574219034
 20
16.6290435791015589
 30
0.0
 11
214.3722839355469034
 21
16.6290435791015589
 31
0.0
  0
LINE
  5
562
100
AcDbEntity
100
AcDbLine
  8
CADDY_2
 62
256
370
-1
  6
CONTINUOUS
 10
214.556884765625
 20
16.6290435791015589
 30
0.0
 11
214.5937805175780966
 21
16.6290435791015589
 31
0.0
  0
LINE
  5
563
100
AcDbEntity
100
AcDbLine
  8
CADDY_2
 62
256
370
-1
  6
CONTINUOUS
 10
214.8892059326171875
 20
16.6290435791015589
 30
0.0
 11
214.9629974365234091
 21
16.6290435791015589
 31
0.0
  0
LINE
  5
564
100
AcDbEntity
100
AcDbLine
  8
CADDY_2
 62
256
370
-1
  6
CONTINUOUS
 10
215.0738067626953125
 20
16.6290435791015589
 30
0.0
 11
215.1476135253905966
 21
16.6290435791015589
 31
0.0
  0
LINE
  5
565
100
AcDbEntity
100
AcDbLine
  8
CADDY_2
 62
256
370
-1
  6
CONTINUOUS
 10
215.516845703125
 20
16.6290435791015589
 30
0.0
 11
215.5537567138671875
 21
16.6290435791015589
 31
0.0
  0
LINE
  5
566
100
AcDbEntity
100
AcDbLine
  8
CADDY_2
 62
256
370
-1
  6
CONTINUOUS
 10
215.6645660400390909
 20
16.6290435791015589
 30
0.0
 11
215.8122406005859091
 21
16.6290435791015589
 31
0.0
  0
LINE
  5
567
100
AcDbEntity
100
AcDbLine
  8
CADDY_2
 62
256
370
-1
  6
CONTINUOUS
 10
215.9968566894530966
 20
16.6290435791015589
 30
0.0
 11
216.0337677001953125
 21
16.6290435791015589
 31
0.0
  0
LINE
  5
568
100
AcDbEntity
100
AcDbLine
  8
CADDY_2
 62
256
370
-1
  6
CONTINUOUS
 10
216.3291168212890909
 20
16.6290435791015589
 30
0.0
 11
216.4029693603515909
 21
16.6290435791015589
 31
0.0
  0
LINE
  5
569
100
AcDbEntity
100
AcDbLine
  8
CADDY_2
 62
256
370
-1
  6
CONTINUOUS
 10
216.5506591796875
 20
16.6290435791015589
 30
0.0
 11
216.6245269775390909
 21
16.6290435791015589
 31
0.0
  0
LINE
  5
56A
100
AcDbEntity
100
AcDbLine
  8
CADDY_2
 62
256
370
-1
  6
CONTINUOUS
 10
217.0675811767578125
 20
16.6290435791015589
 30
0.0
 11
217.1044921875
 21
16.6290435791015589
 31
0.0
  0
LINE
  5
56B
100
AcDbEntity
100
AcDbLine
  8
CADDY_2
 62
256
370
-1
  6
CONTINUOUS
 10
217.2521820068359091
 20
16.6290435791015589
 30
0.0
 11
217.3260192871094034
 21
16.6290435791015589
 31
0.0
  0
LINE
  5
56C
100
AcDbEntity
100
AcDbLine
  8
CADDY_2
 62
256
370
-1
  6
CONTINUOUS
 10
217.7690887451171875
 20
16.6290435791015589
 30
0.0
 11
217.8429107666015909
 21
16.6290435791015589
 31
0.0
  0
LINE
  5
56D
100
AcDbEntity
100
AcDbLine
  8
CADDY_2
 62
256
370
-1
  6
CONTINUOUS
 10
218.212158203125
 20
16.6290435791015589
 30
0.0
 11
218.2490692138671875
 21
16.6290435791015589
 31
0.0
  0
LINE
  5
56E
100
AcDbEntity
100
AcDbLine
  8
CADDY_2
 62
256
370
-1
  6
CONTINUOUS
 10
218.7290496826171875
 20
16.6290435791015589
 30
0.0
 11
218.8398284912109091
 21
16.6290435791015589
 31
0.0
  0
LINE
  5
56F
100
AcDbEntity
100
AcDbLine
  8
CADDY_2
 62
256
370
-1
  6
CONTINUOUS
 10
219.5782470703125
 20
16.6290435791015589
 30
0.0
 11
219.6151885986328125
 21
16.6290435791015589
 31
0.0
  0
LINE
  5
570
100
AcDbEntity
100
AcDbLine
  8
CADDY_2
 62
256
370
-1
  6
CONTINUOUS
 10
219.6890106201171875
 20
16.6290435791015589
 30
0.0
 11
219.7997894287109091
 21
16.6290435791015589
 31
0.0
  0
LINE
  5
571
100
AcDbEntity
100
AcDbLine
  8
CADDY_2
 62
256
370
-1
  6
CONTINUOUS
 10
219.9844055175780966
 20
16.6290435791015589
 30
0.0
 11
220.0213317871094034
 21
16.6290435791015589
 31
0.0
  0
LINE
  5
572
100
AcDbEntity
100
AcDbLine
  8
CADDY_2
 62
256
370
-1
  6
CONTINUOUS
 10
220.132080078125
 20
16.6290435791015589
 30
0.0
 11
220.2059326171875
 21
16.6290435791015589
 31
0.0
  0
LINE
  5
573
100
AcDbEntity
100
AcDbLine
  8
CADDY_2
 62
256
370
-1
  6
CONTINUOUS
 10
220.5382232666015909
 20
16.6290435791015589
 30
0.0
 11
220.6120758056640909
 21
16.6290435791015589
 31
0.0
  0
LINE
  5
574
100
AcDbEntity
100
AcDbLine
  8
CADDY_2
 62
256
370
-1
  6
CONTINUOUS
 10
220.759765625
 20
16.6290435791015589
 30
0.0
 11
220.8335876464844034
 21
16.6290435791015589
 31
0.0
  0
LINE
  5
575
100
AcDbEntity
100
AcDbLine
  8
CADDY_2
 62
256
370
-1
  6
CONTINUOUS
 10
221.2397613525390909
 20
16.6290435791015589
 30
0.0
 11
221.3135681152344034
 21
16.6290435791015589
 31
0.0
  0
LINE
  5
576
100
AcDbEntity
100
AcDbLine
  8
CADDY_2
 62
256
370
-1
  6
CONTINUOUS
 10
221.6828155517578125
 20
16.6290435791015589
 30
0.0
 11
221.7566528320311932
 21
16.6290435791015589
 31
0.0
  0
LINE
  5
577
100
AcDbEntity
100
AcDbLine
  8
CADDY_2
 62
256
370
-1
  6
CONTINUOUS
 10
204.9941101074219034
 20
16.6657562255859411
 30
0.0
 11
205.0679473876953125
 21
16.6657562255859411
 31
0.0
  0
LINE
  5
578
100
AcDbEntity
100
AcDbLine
  8
CADDY_2
 62
256
370
-1
  6
CONTINUOUS
 10
205.2156524658203125
 20
16.6657562255859411
 30
0.0
 11
205.2525482177734091
 21
16.6657562255859411
 31
0.0
  0
LINE
  5
579
100
AcDbEntity
100
AcDbLine
  8
CADDY_2
 62
256
370
-1
  6
CONTINUOUS
 10
205.65869140625
 20
16.6657562255859411
 30
0.0
 11
205.7325592041015909
 21
16.6657562255859411
 31
0.0
  0
LINE
  5
57A
100
AcDbEntity
100
AcDbLine
  8
CADDY_2
 62
256
370
-1
  6
CONTINUOUS
 10
206.286376953125
 20
16.6657562255859411
 30
0.0
 11
206.3602142333984091
 21
16.6657562255859411
 31
0.0
  0
LINE
  5
57B
100
AcDbEntity
100
AcDbLine
  8
CADDY_2
 62
256
370
-1
  6
CONTINUOUS
 10
206.5079040527344034
 20
16.6657562255859411
 30
0.0
 11
206.5448608398438068
 21
16.6657562255859411
 31
0.0
  0
LINE
  5
57C
100
AcDbEntity
100
AcDbLine
  8
CADDY_2
 62
256
370
-1
  6
CONTINUOUS
 10
206.9509735107421875
 20
16.6657562255859411
 30
0.0
 11
207.0248413085938068
 21
16.6657562255859411
 31
0.0
  0
LINE
  5
57D
100
AcDbEntity
100
AcDbLine
  8
CADDY_2
 62
256
370
-1
  6
CONTINUOUS
 10
207.1355895996094034
 20
16.6657562255859411
 30
0.0
 11
207.1725158691405966
 21
16.6657562255859411
 31
0.0
  0
LINE
  5
57E
100
AcDbEntity
100
AcDbLine
  8
CADDY_2
 62
256
370
-1
  6
CONTINUOUS
 10
207.8371124267578125
 20
16.6657562255859411
 30
0.0
 11
207.9109497070311932
 21
16.6657562255859411
 31
0.0
  0
LINE
  5
57F
100
AcDbEntity
100
AcDbLine
  8
CADDY_2
 62
256
370
-1
  6
CONTINUOUS
 10
208.4278411865234091
 20
16.6657562255859411
 30
0.0
 11
208.5016937255859091
 21
16.6657562255859411
 31
0.0
  0
LINE
  5
580
100
AcDbEntity
100
AcDbLine
  8
CADDY_2
 62
256
370
-1
  6
CONTINUOUS
 10
208.7232055664061932
 20
16.6657562255859411
 30
0.0
 11
208.8339996337890909
 21
16.6657562255859411
 31
0.0
  0
LINE
  5
581
100
AcDbEntity
100
AcDbLine
  8
CADDY_2
 62
256
370
-1
  6
CONTINUOUS
 10
208.9816741943359091
 20
16.6657562255859411
 30
0.0
 11
209.0924530029296875
 21
16.6657562255859411
 31
0.0
  0
LINE
  5
582
100
AcDbEntity
100
AcDbLine
  8
CADDY_2
 62
256
370
-1
  6
CONTINUOUS
 10
209.6093597412109091
 20
16.6657562255859411
 30
0.0
 11
209.7201385498046875
 21
16.6657562255859411
 31
0.0
  0
LINE
  5
583
100
AcDbEntity
100
AcDbLine
  8
CADDY_2
 62
256
370
-1
  6
CONTINUOUS
 10
209.9047393798828125
 20
16.6657562255859411
 30
0.0
 11
209.941650390625
 21
16.6657562255859411
 31
0.0
  0
LINE
  5
584
100
AcDbEntity
100
AcDbLine
  8
CADDY_2
 62
256
370
-1
  6
CONTINUOUS
 10
210.0154724121094034
 20
16.6657562255859411
 30
0.0
 11
210.0893402099609091
 21
16.6657562255859411
 31
0.0
  0
LINE
  5
585
100
AcDbEntity
100
AcDbLine
  8
CADDY_2
 62
256
370
-1
  6
CONTINUOUS
 10
210.3477935791015909
 20
16.6657562255859411
 30
0.0
 11
210.3847351074219034
 21
16.6657562255859411
 31
0.0
  0
LINE
  5
586
100
AcDbEntity
100
AcDbLine
  8
CADDY_2
 62
256
370
-1
  6
CONTINUOUS
 10
210.4585418701171875
 20
16.6657562255859411
 30
0.0
 11
210.5324249267578125
 21
16.6657562255859411
 31
0.0
  0
LINE
  5
587
100
AcDbEntity
100
AcDbLine
  8
CADDY_2
 62
256
370
-1
  6
CONTINUOUS
 10
210.9385528564453125
 20
16.6657562255859411
 30
0.0
 11
210.9754333496094034
 21
16.6657562255859411
 31
0.0
  0
LINE
  5
588
100
AcDbEntity
100
AcDbLine
  8
CADDY_2
 62
256
370
-1
  6
CONTINUOUS
 10
211.0862274169921875
 20
16.6657562255859411
 30
0.0
 11
211.1600494384765909
 21
16.6657562255859411
 31
0.0
  0
LINE
  5
589
100
AcDbEntity
100
AcDbLine
  8
CADDY_2
 62
256
370
-1
  6
CONTINUOUS
 10
211.5292816162109091
 20
16.6657562255859411
 30
0.0
 11
211.677001953125
 21
16.6657562255859411
 31
0.0
  0
LINE
  5
58A
100
AcDbEntity
100
AcDbLine
  8
CADDY_2
 62
256
370
-1
  6
CONTINUOUS
 10
212.0462036132811932
 20
16.6657562255859411
 30
0.0
 11
212.156982421875
 21
16.6657562255859411
 31
0.0
  0
LINE
  5
58B
100
AcDbEntity
100
AcDbLine
  8
CADDY_2
 62
256
370
-1
  6
CONTINUOUS
 10
212.8584747314453125
 20
16.6657562255859411
 30
0.0
 11
212.9323120117188068
 21
16.6657562255859411
 31
0.0
  0
LINE
  5
58C
100
AcDbEntity
100
AcDbLine
  8
CADDY_2
 62
256
370
-1
  6
CONTINUOUS
 10
213.3015289306640909
 20
16.6657562255859411
 30
0.0
 11
213.3753814697265909
 21
16.6657562255859411
 31
0.0
  0
LINE
  5
58D
100
AcDbEntity
100
AcDbLine
  8
CADDY_2
 62
256
370
-1
  6
CONTINUOUS
 10
213.7076568603515909
 20
16.6657562255859411
 30
0.0
 11
213.7815246582030966
 21
16.6657562255859411
 31
0.0
  0
LINE
  5
58E
100
AcDbEntity
100
AcDbLine
  8
CADDY_2
 62
256
370
-1
  6
CONTINUOUS
 10
214.076904296875
 20
16.6657562255859411
 30
0.0
 11
214.1138305664061932
 21
16.6657562255859411
 31
0.0
  0
LINE
  5
58F
100
AcDbEntity
100
AcDbLine
  8
CADDY_2
 62
256
370
-1
  6
CONTINUOUS
 10
214.2245788574219034
 20
16.6657562255859411
 30
0.0
 11
214.3353424072265909
 21
16.6657562255859411
 31
0.0
  0
LINE
  5
590
100
AcDbEntity
100
AcDbLine
  8
CADDY_2
 62
256
370
-1
  6
CONTINUOUS
 10
214.556884765625
 20
16.6657562255859411
 30
0.0
 11
214.5937805175780966
 21
16.6657562255859411
 31
0.0
  0
LINE
  5
591
100
AcDbEntity
100
AcDbLine
  8
CADDY_2
 62
256
370
-1
  6
CONTINUOUS
 10
214.8892059326171875
 20
16.6657562255859411
 30
0.0
 11
214.9629974365234091
 21
16.6657562255859411
 31
0.0
  0
LINE
  5
592
100
AcDbEntity
100
AcDbLine
  8
CADDY_2
 62
256
370
-1
  6
CONTINUOUS
 10
215.1107025146484091
 20
16.6657562255859411
 30
0.0
 11
215.1476135253905966
 21
16.6657562255859411
 31
0.0
  0
LINE
  5
593
100
AcDbEntity
100
AcDbLine
  8
CADDY_2
 62
256
370
-1
  6
CONTINUOUS
 10
215.516845703125
 20
16.6657562255859411
 30
0.0
 11
215.5537567138671875
 21
16.6657562255859411
 31
0.0
  0
LINE
  5
594
100
AcDbEntity
100
AcDbLine
  8
CADDY_2
 62
256
370
-1
  6
CONTINUOUS
 10
215.6645660400390909
 20
16.6657562255859411
 30
0.0
 11
215.7752838134765909
 21
16.6657562255859411
 31
0.0
  0
LINE
  5
595
100
AcDbEntity
100
AcDbLine
  8
CADDY_2
 62
256
370
-1
  6
CONTINUOUS
 10
215.9968566894530966
 20
16.6657562255859411
 30
0.0
 11
216.0337677001953125
 21
16.6657562255859411
 31
0.0
  0
LINE
  5
596
100
AcDbEntity
100
AcDbLine
  8
CADDY_2
 62
256
370
-1
  6
CONTINUOUS
 10
216.3291168212890909
 20
16.6657562255859411
 30
0.0
 11
216.4029693603515909
 21
16.6657562255859411
 31
0.0
  0
LINE
  5
597
100
AcDbEntity
100
AcDbLine
  8
CADDY_2
 62
256
370
-1
  6
CONTINUOUS
 10
216.5875854492188068
 20
16.6657562255859411
 30
0.0
 11
216.6983489990234091
 21
16.6657562255859411
 31
0.0
  0
LINE
  5
598
100
AcDbEntity
100
AcDbLine
  8
CADDY_2
 62
256
370
-1
  6
CONTINUOUS
 10
217.1044921875
 20
16.6657562255859411
 30
0.0
 11
217.1414184570311932
 21
16.6657562255859411
 31
0.0
  0
LINE
  5
599
100
AcDbEntity
100
AcDbLine
  8
CADDY_2
 62
256
370
-1
  6
CONTINUOUS
 10
217.2521820068359091
 20
16.6657562255859411
 30
0.0
 11
217.3260192871094034
 21
16.6657562255859411
 31
0.0
  0
LINE
  5
59A
100
AcDbEntity
100
AcDbLine
  8
CADDY_2
 62
256
370
-1
  6
CONTINUOUS
 10
217.7690887451171875
 20
16.6657562255859411
 30
0.0
 11
217.8429107666015909
 21
16.6657562255859411
 31
0.0
  0
LINE
  5
59B
100
AcDbEntity
100
AcDbLine
  8
CADDY_2
 62
256
370
-1
  6
CONTINUOUS
 10
218.212158203125
 20
16.6657562255859411
 30
0.0
 11
218.2490692138671875
 21
16.6657562255859411
 31
0.0
  0
LINE
  5
59C
100
AcDbEntity
100
AcDbLine
  8
CADDY_2
 62
256
370
-1
  6
CONTINUOUS
 10
218.7290496826171875
 20
16.6657562255859411
 30
0.0
 11
218.8398284912109091
 21
16.6657562255859411
 31
0.0
  0
LINE
  5
59D
100
AcDbEntity
100
AcDbLine
  8
CADDY_2
 62
256
370
-1
  6
CONTINUOUS
 10
219.5782470703125
 20
16.6657562255859411
 30
0.0
 11
219.6151885986328125
 21
16.6657562255859411
 31
0.0
  0
LINE
  5
59E
100
AcDbEntity
100
AcDbLine
  8
CADDY_2
 62
256
370
-1
  6
CONTINUOUS
 10
219.6890106201171875
 20
16.6657562255859411
 30
0.0
 11
219.7628479003905966
 21
16.6657562255859411
 31
0.0
  0
LINE
  5
59F
100
AcDbEntity
100
AcDbLine
  8
CADDY_2
 62
256
370
-1
  6
CONTINUOUS
 10
220.0213317871094034
 20
16.6657562255859411
 30
0.0
 11
220.0582275390625
 21
16.6657562255859411
 31
0.0
  0
LINE
  5
5A0
100
AcDbEntity
100
AcDbLine
  8
CADDY_2
 62
256
370
-1
  6
CONTINUOUS
 10
220.132080078125
 20
16.6657562255859411
 30
0.0
 11
220.2059326171875
 21
16.6657562255859411
 31
0.0
  0
LINE
  5
5A1
100
AcDbEntity
100
AcDbLine
  8
CADDY_2
 62
256
370
-1
  6
CONTINUOUS
 10
220.5382232666015909
 20
16.6657562255859411
 30
0.0
 11
220.6120758056640909
 21
16.6657562255859411
 31
0.0
  0
LINE
  5
5A2
100
AcDbEntity
100
AcDbLine
  8
CADDY_2
 62
256
370
-1
  6
CONTINUOUS
 10
220.7966918945311932
 20
16.6657562255859411
 30
0.0
 11
220.9074554443359091
 21
16.6657562255859411
 31
0.0
  0
LINE
  5
5A3
100
AcDbEntity
100
AcDbLine
  8
CADDY_2
 62
256
370
-1
  6
CONTINUOUS
 10
221.2397613525390909
 20
16.6657562255859411
 30
0.0
 11
221.3135681152344034
 21
16.6657562255859411
 31
0.0
  0
LINE
  5
5A4
100
AcDbEntity
100
AcDbLine
  8
CADDY_2
 62
256
370
-1
  6
CONTINUOUS
 10
221.6828155517578125
 20
16.6657562255859411
 30
0.0
 11
221.7566528320311932
 21
16.6657562255859411
 31
0.0
  0
LINE
  5
5A5
100
AcDbEntity
100
AcDbLine
  8
CADDY_2
 62
256
370
-1
  6
CONTINUOUS
 10
204.9941101074219034
 20
16.70245361328125
 30
0.0
 11
205.0679473876953125
 21
16.70245361328125
 31
0.0
  0
LINE
  5
5A6
100
AcDbEntity
100
AcDbLine
  8
CADDY_2
 62
256
370
-1
  6
CONTINUOUS
 10
205.2156524658203125
 20
16.70245361328125
 30
0.0
 11
205.2525482177734091
 21
16.70245361328125
 31
0.0
  0
LINE
  5
5A7
100
AcDbEntity
100
AcDbLine
  8
CADDY_2
 62
256
370
-1
  6
CONTINUOUS
 10
205.65869140625
 20
16.70245361328125
 30
0.0
 11
205.7325592041015909
 21
16.70245361328125
 31
0.0
  0
LINE
  5
5A8
100
AcDbEntity
100
AcDbLine
  8
CADDY_2
 62
256
370
-1
  6
CONTINUOUS
 10
206.286376953125
 20
16.70245361328125
 30
0.0
 11
206.3602142333984091
 21
16.70245361328125
 31
0.0
  0
LINE
  5
5A9
100
AcDbEntity
100
AcDbLine
  8
CADDY_2
 62
256
370
-1
  6
CONTINUOUS
 10
206.5079040527344034
 20
16.70245361328125
 30
0.0
 11
206.5448608398438068
 21
16.70245361328125
 31
0.0
  0
LINE
  5
5AA
100
AcDbEntity
100
AcDbLine
  8
CADDY_2
 62
256
370
-1
  6
CONTINUOUS
 10
206.9509735107421875
 20
16.70245361328125
 30
0.0
 11
207.0248413085938068
 21
16.70245361328125
 31
0.0
  0
LINE
  5
5AB
100
AcDbEntity
100
AcDbLine
  8
CADDY_2
 62
256
370
-1
  6
CONTINUOUS
 10
207.1725158691405966
 20
16.70245361328125
 30
0.0
 11
207.246337890625
 21
16.70245361328125
 31
0.0
  0
LINE
  5
5AC
100
AcDbEntity
100
AcDbLine
  8
CADDY_2
 62
256
370
-1
  6
CONTINUOUS
 10
207.8371124267578125
 20
16.70245361328125
 30
0.0
 11
207.9109497070311932
 21
16.70245361328125
 31
0.0
  0
LINE
  5
5AD
100
AcDbEntity
100
AcDbLine
  8
CADDY_2
 62
256
370
-1
  6
CONTINUOUS
 10
208.4278411865234091
 20
16.70245361328125
 30
0.0
 11
208.5016937255859091
 21
16.70245361328125
 31
0.0
  0
LINE
  5
5AE
100
AcDbEntity
100
AcDbLine
  8
CADDY_2
 62
256
370
-1
  6
CONTINUOUS
 10
208.7601623535155966
 20
16.70245361328125
 30
0.0
 11
208.8709106445311932
 21
16.70245361328125
 31
0.0
  0
LINE
  5
5AF
100
AcDbEntity
100
AcDbLine
  8
CADDY_2
 62
256
370
-1
  6
CONTINUOUS
 10
209.0186157226561932
 20
16.70245361328125
 30
0.0
 11
209.1293640136719034
 21
16.70245361328125
 31
0.0
  0
LINE
  5
5B0
100
AcDbEntity
100
AcDbLine
  8
CADDY_2
 62
256
370
-1
  6
CONTINUOUS
 10
209.6093597412109091
 20
16.70245361328125
 30
0.0
 11
209.6831817626953125
 21
16.70245361328125
 31
0.0
  0
LINE
  5
5B1
100
AcDbEntity
100
AcDbLine
  8
CADDY_2
 62
256
370
-1
  6
CONTINUOUS
 10
209.9047393798828125
 20
16.70245361328125
 30
0.0
 11
210.0893402099609091
 21
16.70245361328125
 31
0.0
  0
LINE
  5
5B2
100
AcDbEntity
100
AcDbLine
  8
CADDY_2
 62
256
370
-1
  6
CONTINUOUS
 10
210.3477935791015909
 20
16.70245361328125
 30
0.0
 11
210.5324249267578125
 21
16.70245361328125
 31
0.0
  0
LINE
  5
5B3
100
AcDbEntity
100
AcDbLine
  8
CADDY_2
 62
256
370
-1
  6
CONTINUOUS
 10
210.9754333496094034
 20
16.70245361328125
 30
0.0
 11
211.0123901367188068
 21
16.70245361328125
 31
0.0
  0
LINE
  5
5B4
100
AcDbEntity
100
AcDbLine
  8
CADDY_2
 62
256
370
-1
  6
CONTINUOUS
 10
211.0862274169921875
 20
16.70245361328125
 30
0.0
 11
211.1600494384765909
 21
16.70245361328125
 31
0.0
  0
LINE
  5
5B5
100
AcDbEntity
100
AcDbLine
  8
CADDY_2
 62
256
370
-1
  6
CONTINUOUS
 10
211.5292816162109091
 20
16.70245361328125
 30
0.0
 11
211.6400756835938068
 21
16.70245361328125
 31
0.0
  0
LINE
  5
5B6
100
AcDbEntity
100
AcDbLine
  8
CADDY_2
 62
256
370
-1
  6
CONTINUOUS
 10
212.0831298828125
 20
16.70245361328125
 30
0.0
 11
212.1938781738280966
 21
16.70245361328125
 31
0.0
  0
LINE
  5
5B7
100
AcDbEntity
100
AcDbLine
  8
CADDY_2
 62
256
370
-1
  6
CONTINUOUS
 10
212.6369781494140909
 20
16.70245361328125
 30
0.0
 11
212.6738433837890909
 21
16.70245361328125
 31
0.0
  0
LINE
  5
5B8
100
AcDbEntity
100
AcDbLine
  8
CADDY_2
 62
256
370
-1
  6
CONTINUOUS
 10
212.8584747314453125
 20
16.70245361328125
 30
0.0
 11
212.9323120117188068
 21
16.70245361328125
 31
0.0
  0
LINE
  5
5B9
100
AcDbEntity
100
AcDbLine
  8
CADDY_2
 62
256
370
-1
  6
CONTINUOUS
 10
213.3015289306640909
 20
16.70245361328125
 30
0.0
 11
213.3753814697265909
 21
16.70245361328125
 31
0.0
  0
LINE
  5
5BA
100
AcDbEntity
100
AcDbLine
  8
CADDY_2
 62
256
370
-1
  6
CONTINUOUS
 10
213.7076568603515909
 20
16.70245361328125
 30
0.0
 11
213.7815246582030966
 21
16.70245361328125
 31
0.0
  0
LINE
  5
5BB
100
AcDbEntity
100
AcDbLine
  8
CADDY_2
 62
256
370
-1
  6
CONTINUOUS
 10
214.076904296875
 20
16.70245361328125
 30
0.0
 11
214.1138305664061932
 21
16.70245361328125
 31
0.0
  0
LINE
  5
5BC
100
AcDbEntity
100
AcDbLine
  8
CADDY_2
 62
256
370
-1
  6
CONTINUOUS
 10
214.1876678466796875
 20
16.70245361328125
 30
0.0
 11
214.3353424072265909
 21
16.70245361328125
 31
0.0
  0
LINE
  5
5BD
100
AcDbEntity
100
AcDbLine
  8
CADDY_2
 62
256
370
-1
  6
CONTINUOUS
 10
214.556884765625
 20
16.70245361328125
 30
0.0
 11
214.5937805175780966
 21
16.70245361328125
 31
0.0
  0
LINE
  5
5BE
100
AcDbEntity
100
AcDbLine
  8
CADDY_2
 62
256
370
-1
  6
CONTINUOUS
 10
214.8892059326171875
 20
16.70245361328125
 30
0.0
 11
214.9629974365234091
 21
16.70245361328125
 31
0.0
  0
LINE
  5
5BF
100
AcDbEntity
100
AcDbLine
  8
CADDY_2
 62
256
370
-1
  6
CONTINUOUS
 10
215.1107025146484091
 20
16.70245361328125
 30
0.0
 11
215.1476135253905966
 21
16.70245361328125
 31
0.0
  0
LINE
  5
5C0
100
AcDbEntity
100
AcDbLine
  8
CADDY_2
 62
256
370
-1
  6
CONTINUOUS
 10
215.516845703125
 20
16.70245361328125
 30
0.0
 11
215.5537567138671875
 21
16.70245361328125
 31
0.0
  0
LINE
  5
5C1
100
AcDbEntity
100
AcDbLine
  8
CADDY_2
 62
256
370
-1
  6
CONTINUOUS
 10
215.6276092529296875
 20
16.70245361328125
 30
0.0
 11
215.7752838134765909
 21
16.70245361328125
 31
0.0
  0
LINE
  5
5C2
100
AcDbEntity
100
AcDbLine
  8
CADDY_2
 62
256
370
-1
  6
CONTINUOUS
 10
215.9968566894530966
 20
16.70245361328125
 30
0.0
 11
216.0337677001953125
 21
16.70245361328125
 31
0.0
  0
LINE
  5
5C3
100
AcDbEntity
100
AcDbLine
  8
CADDY_2
 62
256
370
-1
  6
CONTINUOUS
 10
216.3291168212890909
 20
16.70245361328125
 30
0.0
 11
216.4029693603515909
 21
16.70245361328125
 31
0.0
  0
LINE
  5
5C4
100
AcDbEntity
100
AcDbLine
  8
CADDY_2
 62
256
370
-1
  6
CONTINUOUS
 10
216.6245269775390909
 20
16.70245361328125
 30
0.0
 11
216.7352752685546875
 21
16.70245361328125
 31
0.0
  0
LINE
  5
5C5
100
AcDbEntity
100
AcDbLine
  8
CADDY_2
 62
256
370
-1
  6
CONTINUOUS
 10
217.1414184570311932
 20
16.70245361328125
 30
0.0
 11
217.1783447265625
 21
16.70245361328125
 31
0.0
  0
LINE
  5
5C6
100
AcDbEntity
100
AcDbLine
  8
CADDY_2
 62
256
370
-1
  6
CONTINUOUS
 10
217.2521820068359091
 20
16.70245361328125
 30
0.0
 11
217.3260192871094034
 21
16.70245361328125
 31
0.0
  0
LINE
  5
5C7
100
AcDbEntity
100
AcDbLine
  8
CADDY_2
 62
256
370
-1
  6
CONTINUOUS
 10
217.7690887451171875
 20
16.70245361328125
 30
0.0
 11
217.8429107666015909
 21
16.70245361328125
 31
0.0
  0
LINE
  5
5C8
100
AcDbEntity
100
AcDbLine
  8
CADDY_2
 62
256
370
-1
  6
CONTINUOUS
 10
218.212158203125
 20
16.70245361328125
 30
0.0
 11
218.2490692138671875
 21
16.70245361328125
 31
0.0
  0
LINE
  5
5C9
100
AcDbEntity
100
AcDbLine
  8
CADDY_2
 62
256
370
-1
  6
CONTINUOUS
 10
218.7659606933594034
 20
16.70245361328125
 30
0.0
 11
218.8767700195311932
 21
16.70245361328125
 31
0.0
  0
LINE
  5
5CA
100
AcDbEntity
100
AcDbLine
  8
CADDY_2
 62
256
370
-1
  6
CONTINUOUS
 10
219.2828674316405966
 20
16.70245361328125
 30
0.0
 11
219.3198089599609091
 21
16.70245361328125
 31
0.0
  0
LINE
  5
5CB
100
AcDbEntity
100
AcDbLine
  8
CADDY_2
 62
256
370
-1
  6
CONTINUOUS
 10
219.5782470703125
 20
16.70245361328125
 30
0.0
 11
219.7628479003905966
 21
16.70245361328125
 31
0.0
  0
LINE
  5
5CC
100
AcDbEntity
100
AcDbLine
  8
CADDY_2
 62
256
370
-1
  6
CONTINUOUS
 10
220.0213317871094034
 20
16.70245361328125
 30
0.0
 11
220.2059326171875
 21
16.70245361328125
 31
0.0
  0
LINE
  5
5CD
100
AcDbEntity
100
AcDbLine
  8
CADDY_2
 62
256
370
-1
  6
CONTINUOUS
 10
220.5382232666015909
 20
16.70245361328125
 30
0.0
 11
220.6120758056640909
 21
16.70245361328125
 31
0.0
  0
LINE
  5
5CE
100
AcDbEntity
100
AcDbLine
  8
CADDY_2
 62
256
370
-1
  6
CONTINUOUS
 10
220.8335876464844034
 20
16.70245361328125
 30
0.0
 11
220.9443817138671875
 21
16.70245361328125
 31
0.0
  0
LINE
  5
5CF
100
AcDbEntity
100
AcDbLine
  8
CADDY_2
 62
256
370
-1
  6
CONTINUOUS
 10
221.2397613525390909
 20
16.70245361328125
 30
0.0
 11
221.3135681152344034
 21
16.70245361328125
 31
0.0
  0
LINE
  5
5D0
100
AcDbEntity
100
AcDbLine
  8
CADDY_2
 62
256
370
-1
  6
CONTINUOUS
 10
221.6828155517578125
 20
16.70245361328125
 30
0.0
 11
221.7566528320311932
 21
16.70245361328125
 31
0.0
  0
LINE
  5
5D1
100
AcDbEntity
100
AcDbLine
  8
CADDY_2
 62
256
370
-1
  6
CONTINUOUS
 10
205.0310516357421875
 20
16.7391357421875
 30
0.0
 11
205.1048889160155966
 21
16.7391357421875
 31
0.0
  0
LINE
  5
5D2
100
AcDbEntity
100
AcDbLine
  8
CADDY_2
 62
256
370
-1
  6
CONTINUOUS
 10
205.6956176757811932
 20
16.7391357421875
 30
0.0
 11
205.7694854736328125
 21
16.7391357421875
 31
0.0
  0
LINE
  5
5D3
100
AcDbEntity
100
AcDbLine
  8
CADDY_2
 62
256
370
-1
  6
CONTINUOUS
 10
206.3233032226561932
 20
16.7391357421875
 30
0.0
 11
206.3971557617188068
 21
16.7391357421875
 31
0.0
  0
LINE
  5
5D4
100
AcDbEntity
100
AcDbLine
  8
CADDY_2
 62
256
370
-1
  6
CONTINUOUS
 10
206.9878692626953125
 20
16.7391357421875
 30
0.0
 11
207.0617370605469034
 21
16.7391357421875
 31
0.0
  0
LINE
  5
5D5
100
AcDbEntity
100
AcDbLine
  8
CADDY_2
 62
256
370
-1
  6
CONTINUOUS
 10
207.246337890625
 20
16.7391357421875
 30
0.0
 11
207.2832794189453125
 21
16.7391357421875
 31
0.0
  0
LINE
  5
5D6
100
AcDbEntity
100
AcDbLine
  8
CADDY_2
 62
256
370
-1
  6
CONTINUOUS
 10
207.5786437988280966
 20
16.7391357421875
 30
0.0
 11
207.6155395507811932
 21
16.7391357421875
 31
0.0
  0
LINE
  5
5D7
100
AcDbEntity
100
AcDbLine
  8
CADDY_2
 62
256
370
-1
  6
CONTINUOUS
 10
207.8740234375
 20
16.7391357421875
 30
0.0
 11
207.9478454589844034
 21
16.7391357421875
 31
0.0
  0
LINE
  5
5D8
100
AcDbEntity
100
AcDbLine
  8
CADDY_2
 62
256
370
-1
  6
CONTINUOUS
 10
208.2063140869140909
 20
16.7391357421875
 30
0.0
 11
208.2432403564453125
 21
16.7391357421875
 31
0.0
  0
LINE
  5
5D9
100
AcDbEntity
100
AcDbLine
  8
CADDY_2
 62
256
370
-1
  6
CONTINUOUS
 10
208.4647979736328125
 20
16.7391357421875
 30
0.0
 11
208.5386047363280966
 21
16.7391357421875
 31
0.0
  0
LINE
  5
5DA
100
AcDbEntity
100
AcDbLine
  8
CADDY_2
 62
256
370
-1
  6
CONTINUOUS
 10
208.7970733642578125
 20
16.7391357421875
 30
0.0
 11
208.9078216552734091
 21
16.7391357421875
 31
0.0
  0
LINE
  5
5DB
100
AcDbEntity
100
AcDbLine
  8
CADDY_2
 62
256
370
-1
  6
CONTINUOUS
 10
209.0555267333984091
 20
16.7391357421875
 30
0.0
 11
209.1662750244140909
 21
16.7391357421875
 31
0.0
  0
LINE
  5
5DC
100
AcDbEntity
100
AcDbLine
  8
CADDY_2
 62
256
370
-1
  6
CONTINUOUS
 10
209.5724487304688068
 20
16.7391357421875
 30
0.0
 11
209.6831817626953125
 21
16.7391357421875
 31
0.0
  0
LINE
  5
5DD
100
AcDbEntity
100
AcDbLine
  8
CADDY_2
 62
256
370
-1
  6
CONTINUOUS
 10
209.941650390625
 20
16.7391357421875
 30
0.0
 11
210.0893402099609091
 21
16.7391357421875
 31
0.0
  0
LINE
  5
5DE
100
AcDbEntity
100
AcDbLine
  8
CADDY_2
 62
256
370
-1
  6
CONTINUOUS
 10
210.3847351074219034
 20
16.7391357421875
 30
0.0
 11
210.5693359375
 21
16.7391357421875
 31
0.0
  0
LINE
  5
5DF
100
AcDbEntity
100
AcDbLine
  8
CADDY_2
 62
256
370
-1
  6
CONTINUOUS
 10
211.0123901367188068
 20
16.7391357421875
 30
0.0
 11
211.1600494384765909
 21
16.7391357421875
 31
0.0
  0
LINE
  5
5E0
100
AcDbEntity
100
AcDbLine
  8
CADDY_2
 62
256
370
-1
  6
CONTINUOUS
 10
211.5662078857421875
 20
16.7391357421875
 30
0.0
 11
211.6400756835938068
 21
16.7391357421875
 31
0.0
  0
LINE
  5
5E1
100
AcDbEntity
100
AcDbLine
  8
CADDY_2
 62
256
370
-1
  6
CONTINUOUS
 10
211.8246765136719034
 20
16.7391357421875
 30
0.0
 11
211.8985290527344034
 21
16.7391357421875
 31
0.0
  0
LINE
  5
5E2
100
AcDbEntity
100
AcDbLine
  8
CADDY_2
 62
256
370
-1
  6
CONTINUOUS
 10
212.1200408935546875
 20
16.7391357421875
 30
0.0
 11
212.2308044433594034
 21
16.7391357421875
 31
0.0
  0
LINE
  5
5E3
100
AcDbEntity
100
AcDbLine
  8
CADDY_2
 62
256
370
-1
  6
CONTINUOUS
 10
212.6369781494140909
 20
16.7391357421875
 30
0.0
 11
212.7107849121094034
 21
16.7391357421875
 31
0.0
  0
LINE
  5
5E4
100
AcDbEntity
100
AcDbLine
  8
CADDY_2
 62
256
370
-1
  6
CONTINUOUS
 10
212.8953857421875
 20
16.7391357421875
 30
0.0
 11
212.9692535400390909
 21
16.7391357421875
 31
0.0
  0
LINE
  5
5E5
100
AcDbEntity
100
AcDbLine
  8
CADDY_2
 62
256
370
-1
  6
CONTINUOUS
 10
213.3384552001953125
 20
16.7391357421875
 30
0.0
 11
213.4123229980469034
 21
16.7391357421875
 31
0.0
  0
LINE
  5
5E6
100
AcDbEntity
100
AcDbLine
  8
CADDY_2
 62
256
370
-1
  6
CONTINUOUS
 10
213.74462890625
 20
16.7391357421875
 30
0.0
 11
213.8184356689453125
 21
16.7391357421875
 31
0.0
  0
LINE
  5
5E7
100
AcDbEntity
100
AcDbLine
  8
CADDY_2
 62
256
370
-1
  6
CONTINUOUS
 10
214.1138305664061932
 20
16.7391357421875
 30
0.0
 11
214.3353424072265909
 21
16.7391357421875
 31
0.0
  0
LINE
  5
5E8
100
AcDbEntity
100
AcDbLine
  8
CADDY_2
 62
256
370
-1
  6
CONTINUOUS
 10
214.5937805175780966
 20
16.7391357421875
 30
0.0
 11
214.6307067871094034
 21
16.7391357421875
 31
0.0
  0
LINE
  5
5E9
100
AcDbEntity
100
AcDbLine
  8
CADDY_2
 62
256
370
-1
  6
CONTINUOUS
 10
214.9261016845703125
 20
16.7391357421875
 30
0.0
 11
214.9999389648438068
 21
16.7391357421875
 31
0.0
  0
LINE
  5
5EA
100
AcDbEntity
100
AcDbLine
  8
CADDY_2
 62
256
370
-1
  6
CONTINUOUS
 10
215.5537567138671875
 20
16.7391357421875
 30
0.0
 11
215.7752838134765909
 21
16.7391357421875
 31
0.0
  0
LINE
  5
5EB
100
AcDbEntity
100
AcDbLine
  8
CADDY_2
 62
256
370
-1
  6
CONTINUOUS
 10
216.0337677001953125
 20
16.7391357421875
 30
0.0
 11
216.0706634521484091
 21
16.7391357421875
 31
0.0
  0
LINE
  5
5EC
100
AcDbEntity
100
AcDbLine
  8
CADDY_2
 62
256
370
-1
  6
CONTINUOUS
 10
216.3660583496094034
 20
16.7391357421875
 30
0.0
 11
216.4399261474609091
 21
16.7391357421875
 31
0.0
  0
LINE
  5
5ED
100
AcDbEntity
100
AcDbLine
  8
CADDY_2
 62
256
370
-1
  6
CONTINUOUS
 10
216.6614074707030966
 20
16.7391357421875
 30
0.0
 11
216.7722015380859091
 21
16.7391357421875
 31
0.0
  0
LINE
  5
5EE
100
AcDbEntity
100
AcDbLine
  8
CADDY_2
 62
256
370
-1
  6
CONTINUOUS
 10
217.1783447265625
 20
16.7391357421875
 30
0.0
 11
217.3260192871094034
 21
16.7391357421875
 31
0.0
  0
LINE
  5
5EF
100
AcDbEntity
100
AcDbLine
  8
CADDY_2
 62
256
370
-1
  6
CONTINUOUS
 10
217.8059844970703125
 20
16.7391357421875
 30
0.0
 11
217.8798675537109091
 21
16.7391357421875
 31
0.0
  0
LINE
  5
5F0
100
AcDbEntity
100
AcDbLine
  8
CADDY_2
 62
256
370
-1
  6
CONTINUOUS
 10
218.2490692138671875
 20
16.7391357421875
 30
0.0
 11
218.2859954833984091
 21
16.7391357421875
 31
0.0
  0
LINE
  5
5F1
100
AcDbEntity
100
AcDbLine
  8
CADDY_2
 62
256
370
-1
  6
CONTINUOUS
 10
218.8028869628905966
 20
16.7391357421875
 30
0.0
 11
218.9136505126953125
 21
16.7391357421875
 31
0.0
  0
LINE
  5
5F2
100
AcDbEntity
100
AcDbLine
  8
CADDY_2
 62
256
370
-1
  6
CONTINUOUS
 10
219.2828674316405966
 20
16.7391357421875
 30
0.0
 11
219.3567199707030966
 21
16.7391357421875
 31
0.0
  0
LINE
  5
5F3
100
AcDbEntity
100
AcDbLine
  8
CADDY_2
 62
256
370
-1
  6
CONTINUOUS
 10
219.6151885986328125
 20
16.7391357421875
 30
0.0
 11
219.7628479003905966
 21
16.7391357421875
 31
0.0
  0
LINE
  5
5F4
100
AcDbEntity
100
AcDbLine
  8
CADDY_2
 62
256
370
-1
  6
CONTINUOUS
 10
220.0582275390625
 20
16.7391357421875
 30
0.0
 11
220.2428283691405966
 21
16.7391357421875
 31
0.0
  0
LINE
  5
5F5
100
AcDbEntity
100
AcDbLine
  8
CADDY_2
 62
256
370
-1
  6
CONTINUOUS
 10
220.5751495361328125
 20
16.7391357421875
 30
0.0
 11
220.6489868164061932
 21
16.7391357421875
 31
0.0
  0
LINE
  5
5F6
100
AcDbEntity
100
AcDbLine
  8
CADDY_2
 62
256
370
-1
  6
CONTINUOUS
 10
220.8704986572265909
 20
16.7391357421875
 30
0.0
 11
220.9812927246094034
 21
16.7391357421875
 31
0.0
  0
LINE
  5
5F7
100
AcDbEntity
100
AcDbLine
  8
CADDY_2
 62
256
370
-1
  6
CONTINUOUS
 10
221.2766571044921875
 20
16.7391357421875
 30
0.0
 11
221.3505096435546875
 21
16.7391357421875
 31
0.0
  0
LINE
  5
5F8
100
AcDbEntity
100
AcDbLine
  8
CADDY_2
 62
256
370
-1
  6
CONTINUOUS
 10
221.7197418212890909
 20
16.7391357421875
 30
0.0
 11
221.7935638427734091
 21
16.7391357421875
 31
0.0
  0
LINE
  5
5F9
100
AcDbEntity
100
AcDbLine
  8
CADDY_2
 62
256
370
-1
  6
CONTINUOUS
 10
205.0310516357421875
 20
16.7758331298828089
 30
0.0
 11
205.1048889160155966
 21
16.7758331298828089
 31
0.0
  0
LINE
  5
5FA
100
AcDbEntity
100
AcDbLine
  8
CADDY_2
 62
256
370
-1
  6
CONTINUOUS
 10
205.4371795654296875
 20
16.7758331298828089
 30
0.0
 11
205.4740905761719034
 21
16.7758331298828089
 31
0.0
  0
LINE
  5
5FB
100
AcDbEntity
100
AcDbLine
  8
CADDY_2
 62
256
370
-1
  6
CONTINUOUS
 10
205.6956176757811932
 20
16.7758331298828089
 30
0.0
 11
205.7694854736328125
 21
16.7758331298828089
 31
0.0
  0
LINE
  5
5FC
100
AcDbEntity
100
AcDbLine
  8
CADDY_2
 62
256
370
-1
  6
CONTINUOUS
 10
206.3233032226561932
 20
16.7758331298828089
 30
0.0
 11
206.3971557617188068
 21
16.7758331298828089
 31
0.0
  0
LINE
  5
5FD
100
AcDbEntity
100
AcDbLine
  8
CADDY_2
 62
256
370
-1
  6
CONTINUOUS
 10
206.7294616699219034
 20
16.7758331298828089
 30
0.0
 11
206.7663726806640909
 21
16.7758331298828089
 31
0.0
  0
LINE
  5
5FE
100
AcDbEntity
100
AcDbLine
  8
CADDY_2
 62
256
370
-1
  6
CONTINUOUS
 10
206.9878692626953125
 20
16.7758331298828089
 30
0.0
 11
207.0617370605469034
 21
16.7758331298828089
 31
0.0
  0
LINE
  5
5FF
100
AcDbEntity
100
AcDbLine
  8
CADDY_2
 62
256
370
-1
  6
CONTINUOUS
 10
207.2832794189453125
 20
16.7758331298828089
 30
0.0
 11
207.3571166992188068
 21
16.7758331298828089
 31
0.0
  0
LINE
  5
600
100
AcDbEntity
100
AcDbLine
  8
CADDY_2
 62
256
370
-1
  6
CONTINUOUS
 10
207.5786437988280966
 20
16.7758331298828089
 30
0.0
 11
207.6155395507811932
 21
16.7758331298828089
 31
0.0
  0
LINE
  5
601
100
AcDbEntity
100
AcDbLine
  8
CADDY_2
 62
256
370
-1
  6
CONTINUOUS
 10
207.8740234375
 20
16.7758331298828089
 30
0.0
 11
207.9478454589844034
 21
16.7758331298828089
 31
0.0
  0
LINE
  5
602
100
AcDbEntity
100
AcDbLine
  8
CADDY_2
 62
256
370
-1
  6
CONTINUOUS
 10
208.2063140869140909
 20
16.7758331298828089
 30
0.0
 11
208.2801513671875
 21
16.7758331298828089
 31
0.0
  0
LINE
  5
603
100
AcDbEntity
100
AcDbLine
  8
CADDY_2
 62
256
370
-1
  6
CONTINUOUS
 10
208.4647979736328125
 20
16.7758331298828089
 30
0.0
 11
208.5386047363280966
 21
16.7758331298828089
 31
0.0
  0
LINE
  5
604
100
AcDbEntity
100
AcDbLine
  8
CADDY_2
 62
256
370
-1
  6
CONTINUOUS
 10
208.7970733642578125
 20
16.7758331298828089
 30
0.0
 11
208.9078216552734091
 21
16.7758331298828089
 31
0.0
  0
LINE
  5
605
100
AcDbEntity
100
AcDbLine
  8
CADDY_2
 62
256
370
-1
  6
CONTINUOUS
 10
209.0924530029296875
 20
16.7758331298828089
 30
0.0
 11
209.2032165527344034
 21
16.7758331298828089
 31
0.0
  0
LINE
  5
606
100
AcDbEntity
100
AcDbLine
  8
CADDY_2
 62
256
370
-1
  6
CONTINUOUS
 10
209.5724487304688068
 20
16.7758331298828089
 30
0.0
 11
209.6831817626953125
 21
16.7758331298828089
 31
0.0
  0
LINE
  5
607
100
AcDbEntity
100
AcDbLine
  8
CADDY_2
 62
256
370
-1
  6
CONTINUOUS
 10
209.941650390625
 20
16.7758331298828089
 30
0.0
 11
210.0893402099609091
 21
16.7758331298828089
 31
0.0
  0
LINE
  5
608
100
AcDbEntity
100
AcDbLine
  8
CADDY_2
 62
256
370
-1
  6
CONTINUOUS
 10
210.421630859375
 20
16.7758331298828089
 30
0.0
 11
210.5693359375
 21
16.7758331298828089
 31
0.0
  0
LINE
  5
609
100
AcDbEntity
100
AcDbLine
  8
CADDY_2
 62
256
370
-1
  6
CONTINUOUS
 10
211.0123901367188068
 20
16.7758331298828089
 30
0.0
 11
211.1600494384765909
 21
16.7758331298828089
 31
0.0
  0
LINE
  5
60A
100
AcDbEntity
100
AcDbLine
  8
CADDY_2
 62
256
370
-1
  6
CONTINUOUS
 10
211.5662078857421875
 20
16.7758331298828089
 30
0.0
 11
211.6400756835938068
 21
16.7758331298828089
 31
0.0
  0
LINE
  5
60B
100
AcDbEntity
100
AcDbLine
  8
CADDY_2
 62
256
370
-1
  6
CONTINUOUS
 10
211.8246765136719034
 20
16.7758331298828089
 30
0.0
 11
211.8985290527344034
 21
16.7758331298828089
 31
0.0
  0
LINE
  5
60C
100
AcDbEntity
100
AcDbLine
  8
CADDY_2
 62
256
370
-1
  6
CONTINUOUS
 10
212.156982421875
 20
16.7758331298828089
 30
0.0
 11
212.2677459716796875
 21
16.7758331298828089
 31
0.0
  0
LINE
  5
60D
100
AcDbEntity
100
AcDbLine
  8
CADDY_2
 62
256
370
-1
  6
CONTINUOUS
 10
212.6369781494140909
 20
16.7758331298828089
 30
0.0
 11
212.7107849121094034
 21
16.7758331298828089
 31
0.0
  0
LINE
  5
60E
100
AcDbEntity
100
AcDbLine
  8
CADDY_2
 62
256
370
-1
  6
CONTINUOUS
 10
212.8953857421875
 20
16.7758331298828089
 30
0.0
 11
212.9692535400390909
 21
16.7758331298828089
 31
0.0
  0
LINE
  5
60F
100
AcDbEntity
100
AcDbLine
  8
CADDY_2
 62
256
370
-1
  6
CONTINUOUS
 10
213.3384552001953125
 20
16.7758331298828089
 30
0.0
 11
213.4123229980469034
 21
16.7758331298828089
 31
0.0
  0
LINE
  5
610
100
AcDbEntity
100
AcDbLine
  8
CADDY_2
 62
256
370
-1
  6
CONTINUOUS
 10
213.74462890625
 20
16.7758331298828089
 30
0.0
 11
213.8184356689453125
 21
16.7758331298828089
 31
0.0
  0
LINE
  5
611
100
AcDbEntity
100
AcDbLine
  8
CADDY_2
 62
256
370
-1
  6
CONTINUOUS
 10
214.1138305664061932
 20
16.7758331298828089
 30
0.0
 11
214.2984313964844034
 21
16.7758331298828089
 31
0.0
  0
LINE
  5
612
100
AcDbEntity
100
AcDbLine
  8
CADDY_2
 62
256
370
-1
  6
CONTINUOUS
 10
214.5937805175780966
 20
16.7758331298828089
 30
0.0
 11
214.6307067871094034
 21
16.7758331298828089
 31
0.0
  0
LINE
  5
613
100
AcDbEntity
100
AcDbLine
  8
CADDY_2
 62
256
370
-1
  6
CONTINUOUS
 10
214.9261016845703125
 20
16.7758331298828089
 30
0.0
 11
214.9999389648438068
 21
16.7758331298828089
 31
0.0
  0
LINE
  5
614
100
AcDbEntity
100
AcDbLine
  8
CADDY_2
 62
256
370
-1
  6
CONTINUOUS
 10
215.3322448730469034
 20
16.7758331298828089
 30
0.0
 11
215.3691558837890909
 21
16.7758331298828089
 31
0.0
  0
LINE
  5
615
100
AcDbEntity
100
AcDbLine
  8
CADDY_2
 62
256
370
-1
  6
CONTINUOUS
 10
215.5537567138671875
 20
16.7758331298828089
 30
0.0
 11
215.7383728027344034
 21
16.7758331298828089
 31
0.0
  0
LINE
  5
616
100
AcDbEntity
100
AcDbLine
  8
CADDY_2
 62
256
370
-1
  6
CONTINUOUS
 10
216.0337677001953125
 20
16.7758331298828089
 30
0.0
 11
216.0706634521484091
 21
16.7758331298828089
 31
0.0
  0
LINE
  5
617
100
AcDbEntity
100
AcDbLine
  8
CADDY_2
 62
256
370
-1
  6
CONTINUOUS
 10
216.3660583496094034
 20
16.7758331298828089
 30
0.0
 11
216.4399261474609091
 21
16.7758331298828089
 31
0.0
  0
LINE
  5
618
100
AcDbEntity
100
AcDbLine
  8
CADDY_2
 62
256
370
-1
  6
CONTINUOUS
 10
216.6614074707030966
 20
16.7758331298828089
 30
0.0
 11
216.7722015380859091
 21
16.7758331298828089
 31
0.0
  0
LINE
  5
619
100
AcDbEntity
100
AcDbLine
  8
CADDY_2
 62
256
370
-1
  6
CONTINUOUS
 10
217.1783447265625
 20
16.7758331298828089
 30
0.0
 11
217.3260192871094034
 21
16.7758331298828089
 31
0.0
  0
LINE
  5
61A
100
AcDbEntity
100
AcDbLine
  8
CADDY_2
 62
256
370
-1
  6
CONTINUOUS
 10
217.8059844970703125
 20
16.7758331298828089
 30
0.0
 11
217.8798675537109091
 21
16.7758331298828089
 31
0.0
  0
LINE
  5
61B
100
AcDbEntity
100
AcDbLine
  8
CADDY_2
 62
256
370
-1
  6
CONTINUOUS
 10
218.2490692138671875
 20
16.7758331298828089
 30
0.0
 11
218.2859954833984091
 21
16.7758331298828089
 31
0.0
  0
LINE
  5
61C
100
AcDbEntity
100
AcDbLine
  8
CADDY_2
 62
256
370
-1
  6
CONTINUOUS
 10
218.8398284912109091
 20
16.7758331298828089
 30
0.0
 11
218.9505615234375
 21
16.7758331298828089
 31
0.0
  0
LINE
  5
61D
100
AcDbEntity
100
AcDbLine
  8
CADDY_2
 62
256
370
-1
  6
CONTINUOUS
 10
219.2828674316405966
 20
16.7758331298828089
 30
0.0
 11
219.3567199707030966
 21
16.7758331298828089
 31
0.0
  0
LINE
  5
61E
100
AcDbEntity
100
AcDbLine
  8
CADDY_2
 62
256
370
-1
  6
CONTINUOUS
 10
219.6151885986328125
 20
16.7758331298828089
 30
0.0
 11
219.7628479003905966
 21
16.7758331298828089
 31
0.0
  0
LINE
  5
61F
100
AcDbEntity
100
AcDbLine
  8
CADDY_2
 62
256
370
-1
  6
CONTINUOUS
 10
220.0951843261719034
 20
16.7758331298828089
 30
0.0
 11
220.2428283691405966
 21
16.7758331298828089
 31
0.0
  0
LINE
  5
620
100
AcDbEntity
100
AcDbLine
  8
CADDY_2
 62
256
370
-1
  6
CONTINUOUS
 10
220.5751495361328125
 20
16.7758331298828089
 30
0.0
 11
220.6489868164061932
 21
16.7758331298828089
 31
0.0
  0
LINE
  5
621
100
AcDbEntity
100
AcDbLine
  8
CADDY_2
 62
256
370
-1
  6
CONTINUOUS
 10
220.8704986572265909
 20
16.7758331298828089
 30
0.0
 11
220.9812927246094034
 21
16.7758331298828089
 31
0.0
  0
LINE
  5
622
100
AcDbEntity
100
AcDbLine
  8
CADDY_2
 62
256
370
-1
  6
CONTINUOUS
 10
221.2766571044921875
 20
16.7758331298828089
 30
0.0
 11
221.3505096435546875
 21
16.7758331298828089
 31
0.0
  0
LINE
  5
623
100
AcDbEntity
100
AcDbLine
  8
CADDY_2
 62
256
370
-1
  6
CONTINUOUS
 10
221.7197418212890909
 20
16.7758331298828089
 30
0.0
 11
221.7935638427734091
 21
16.7758331298828089
 31
0.0
  0
LINE
  5
624
100
AcDbEntity
100
AcDbLine
  8
CADDY_2
 62
256
370
-1
  6
CONTINUOUS
 10
205.0310516357421875
 20
16.8125457763671911
 30
0.0
 11
205.1048889160155966
 21
16.8125457763671911
 31
0.0
  0
LINE
  5
625
100
AcDbEntity
100
AcDbLine
  8
CADDY_2
 62
256
370
-1
  6
CONTINUOUS
 10
205.4002532958984091
 20
16.8125457763671911
 30
0.0
 11
205.4740905761719034
 21
16.8125457763671911
 31
0.0
  0
LINE
  5
626
100
AcDbEntity
100
AcDbLine
  8
CADDY_2
 62
256
370
-1
  6
CONTINUOUS
 10
205.6956176757811932
 20
16.8125457763671911
 30
0.0
 11
205.7694854736328125
 21
16.8125457763671911
 31
0.0
  0
LINE
  5
627
100
AcDbEntity
100
AcDbLine
  8
CADDY_2
 62
256
370
-1
  6
CONTINUOUS
 10
206.3233032226561932
 20
16.8125457763671911
 30
0.0
 11
206.3971557617188068
 21
16.8125457763671911
 31
0.0
  0
LINE
  5
628
100
AcDbEntity
100
AcDbLine
  8
CADDY_2
 62
256
370
-1
  6
CONTINUOUS
 10
206.6925354003905966
 20
16.8125457763671911
 30
0.0
 11
206.7663726806640909
 21
16.8125457763671911
 31
0.0
  0
LINE
  5
629
100
AcDbEntity
100
AcDbLine
  8
CADDY_2
 62
256
370
-1
  6
CONTINUOUS
 10
206.9878692626953125
 20
16.8125457763671911
 30
0.0
 11
207.0986785888671875
 21
16.8125457763671911
 31
0.0
  0
LINE
  5
62A
100
AcDbEntity
100
AcDbLine
  8
CADDY_2
 62
256
370
-1
  6
CONTINUOUS
 10
207.3571166992188068
 20
16.8125457763671911
 30
0.0
 11
207.39404296875
 21
16.8125457763671911
 31
0.0
  0
LINE
  5
62B
100
AcDbEntity
100
AcDbLine
  8
CADDY_2
 62
256
370
-1
  6
CONTINUOUS
 10
207.6155395507811932
 20
16.8125457763671911
 30
0.0
 11
207.6525115966796875
 21
16.8125457763671911
 31
0.0
  0
LINE
  5
62C
100
AcDbEntity
100
AcDbLine
  8
CADDY_2
 62
256
370
-1
  6
CONTINUOUS
 10
207.8740234375
 20
16.8125457763671911
 30
0.0
 11
207.9478454589844034
 21
16.8125457763671911
 31
0.0
  0
LINE
  5
62D
100
AcDbEntity
100
AcDbLine
  8
CADDY_2
 62
256
370
-1
  6
CONTINUOUS
 10
208.2063140869140909
 20
16.8125457763671911
 30
0.0
 11
208.2801513671875
 21
16.8125457763671911
 31
0.0
  0
LINE
  5
62E
100
AcDbEntity
100
AcDbLine
  8
CADDY_2
 62
256
370
-1
  6
CONTINUOUS
 10
208.4647979736328125
 20
16.8125457763671911
 30
0.0
 11
208.5386047363280966
 21
16.8125457763671911
 31
0.0
  0
LINE
  5
62F
100
AcDbEntity
100
AcDbLine
  8
CADDY_2
 62
256
370
-1
  6
CONTINUOUS
 10
208.7601623535155966
 20
16.8125457763671911
 30
0.0
 11
208.9078216552734091
 21
16.8125457763671911
 31
0.0
  0
LINE
  5
630
100
AcDbEntity
100
AcDbLine
  8
CADDY_2
 62
256
370
-1
  6
CONTINUOUS
 10
209.1662750244140909
 20
16.8125457763671911
 30
0.0
 11
209.2401428222655966
 21
16.8125457763671911
 31
0.0
  0
LINE
  5
631
100
AcDbEntity
100
AcDbLine
  8
CADDY_2
 62
256
370
-1
  6
CONTINUOUS
 10
209.5724487304688068
 20
16.8125457763671911
 30
0.0
 11
209.6462707519530966
 21
16.8125457763671911
 31
0.0
  0
LINE
  5
632
100
AcDbEntity
100
AcDbLine
  8
CADDY_2
 62
256
370
-1
  6
CONTINUOUS
 10
209.941650390625
 20
16.8125457763671911
 30
0.0
 11
210.0893402099609091
 21
16.8125457763671911
 31
0.0
  0
LINE
  5
633
100
AcDbEntity
100
AcDbLine
  8
CADDY_2
 62
256
370
-1
  6
CONTINUOUS
 10
210.4585418701171875
 20
16.8125457763671911
 30
0.0
 11
210.5693359375
 21
16.8125457763671911
 31
0.0
  0
LINE
  5
634
100
AcDbEntity
100
AcDbLine
  8
CADDY_2
 62
256
370
-1
  6
CONTINUOUS
 10
211.0493011474609091
 20
16.8125457763671911
 30
0.0
 11
211.1600494384765909
 21
16.8125457763671911
 31
0.0
  0
LINE
  5
635
100
AcDbEntity
100
AcDbLine
  8
CADDY_2
 62
256
370
-1
  6
CONTINUOUS
 10
211.6031036376953125
 20
16.8125457763671911
 30
0.0
 11
211.677001953125
 21
16.8125457763671911
 31
0.0
  0
LINE
  5
636
100
AcDbEntity
100
AcDbLine
  8
CADDY_2
 62
256
370
-1
  6
CONTINUOUS
 10
211.8246765136719034
 20
16.8125457763671911
 30
0.0
 11
211.8985290527344034
 21
16.8125457763671911
 31
0.0
  0
LINE
  5
637
100
AcDbEntity
100
AcDbLine
  8
CADDY_2
 62
256
370
-1
  6
CONTINUOUS
 10
212.1938781738280966
 20
16.8125457763671911
 30
0.0
 11
212.3046417236328125
 21
16.8125457763671911
 31
0.0
  0
LINE
  5
638
100
AcDbEntity
100
AcDbLine
  8
CADDY_2
 62
256
370
-1
  6
CONTINUOUS
 10
212.6000518798828125
 20
16.8125457763671911
 30
0.0
 11
212.7107849121094034
 21
16.8125457763671911
 31
0.0
  0
LINE
  5
639
100
AcDbEntity
100
AcDbLine
  8
CADDY_2
 62
256
370
-1
  6
CONTINUOUS
 10
212.8953857421875
 20
16.8125457763671911
 30
0.0
 11
212.9692535400390909
 21
16.8125457763671911
 31
0.0
  0
LINE
  5
63A
100
AcDbEntity
100
AcDbLine
  8
CADDY_2
 62
256
370
-1
  6
CONTINUOUS
 10
213.3384552001953125
 20
16.8125457763671911
 30
0.0
 11
213.4123229980469034
 21
16.8125457763671911
 31
0.0
  0
LINE
  5
63B
100
AcDbEntity
100
AcDbLine
  8
CADDY_2
 62
256
370
-1
  6
CONTINUOUS
 10
213.74462890625
 20
16.8125457763671911
 30
0.0
 11
213.8184356689453125
 21
16.8125457763671911
 31
0.0
  0
LINE
  5
63C
100
AcDbEntity
100
AcDbLine
  8
CADDY_2
 62
256
370
-1
  6
CONTINUOUS
 10
214.1138305664061932
 20
16.8125457763671911
 30
0.0
 11
214.2984313964844034
 21
16.8125457763671911
 31
0.0
  0
LINE
  5
63D
100
AcDbEntity
100
AcDbLine
  8
CADDY_2
 62
256
370
-1
  6
CONTINUOUS
 10
214.5937805175780966
 20
16.8125457763671911
 30
0.0
 11
214.6307067871094034
 21
16.8125457763671911
 31
0.0
  0
LINE
  5
63E
100
AcDbEntity
100
AcDbLine
  8
CADDY_2
 62
256
370
-1
  6
CONTINUOUS
 10
214.9261016845703125
 20
16.8125457763671911
 30
0.0
 11
214.9999389648438068
 21
16.8125457763671911
 31
0.0
  0
LINE
  5
63F
100
AcDbEntity
100
AcDbLine
  8
CADDY_2
 62
256
370
-1
  6
CONTINUOUS
 10
215.2953033447265909
 20
16.8125457763671911
 30
0.0
 11
215.3691558837890909
 21
16.8125457763671911
 31
0.0
  0
LINE
  5
640
100
AcDbEntity
100
AcDbLine
  8
CADDY_2
 62
256
370
-1
  6
CONTINUOUS
 10
215.5537567138671875
 20
16.8125457763671911
 30
0.0
 11
215.7383728027344034
 21
16.8125457763671911
 31
0.0
  0
LINE
  5
641
100
AcDbEntity
100
AcDbLine
  8
CADDY_2
 62
256
370
-1
  6
CONTINUOUS
 10
216.0337677001953125
 20
16.8125457763671911
 30
0.0
 11
216.0706634521484091
 21
16.8125457763671911
 31
0.0
  0
LINE
  5
642
100
AcDbEntity
100
AcDbLine
  8
CADDY_2
 62
256
370
-1
  6
CONTINUOUS
 10
216.3660583496094034
 20
16.8125457763671911
 30
0.0
 11
216.4399261474609091
 21
16.8125457763671911
 31
0.0
  0
LINE
  5
643
100
AcDbEntity
100
AcDbLine
  8
CADDY_2
 62
256
370
-1
  6
CONTINUOUS
 10
216.6614074707030966
 20
16.8125457763671911
 30
0.0
 11
216.7722015380859091
 21
16.8125457763671911
 31
0.0
  0
LINE
  5
644
100
AcDbEntity
100
AcDbLine
  8
CADDY_2
 62
256
370
-1
  6
CONTINUOUS
 10
217.2152252197265909
 20
16.8125457763671911
 30
0.0
 11
217.3260192871094034
 21
16.8125457763671911
 31
0.0
  0
LINE
  5
645
100
AcDbEntity
100
AcDbLine
  8
CADDY_2
 62
256
370
-1
  6
CONTINUOUS
 10
217.8059844970703125
 20
16.8125457763671911
 30
0.0
 11
217.8798675537109091
 21
16.8125457763671911
 31
0.0
  0
LINE
  5
646
100
AcDbEntity
100
AcDbLine
  8
CADDY_2
 62
256
370
-1
  6
CONTINUOUS
 10
218.2490692138671875
 20
16.8125457763671911
 30
0.0
 11
218.2859954833984091
 21
16.8125457763671911
 31
0.0
  0
LINE
  5
647
100
AcDbEntity
100
AcDbLine
  8
CADDY_2
 62
256
370
-1
  6
CONTINUOUS
 10
218.8767700195311932
 20
16.8125457763671911
 30
0.0
 11
218.9874877929688068
 21
16.8125457763671911
 31
0.0
  0
LINE
  5
648
100
AcDbEntity
100
AcDbLine
  8
CADDY_2
 62
256
370
-1
  6
CONTINUOUS
 10
219.2459716796875
 20
16.8125457763671911
 30
0.0
 11
219.3567199707030966
 21
16.8125457763671911
 31
0.0
  0
LINE
  5
649
100
AcDbEntity
100
AcDbLine
  8
CADDY_2
 62
256
370
-1
  6
CONTINUOUS
 10
219.6151885986328125
 20
16.8125457763671911
 30
0.0
 11
219.7628479003905966
 21
16.8125457763671911
 31
0.0
  0
LINE
  5
64A
100
AcDbEntity
100
AcDbLine
  8
CADDY_2
 62
256
370
-1
  6
CONTINUOUS
 10
220.132080078125
 20
16.8125457763671911
 30
0.0
 11
220.2428283691405966
 21
16.8125457763671911
 31
0.0
  0
LINE
  5
64B
100
AcDbEntity
100
AcDbLine
  8
CADDY_2
 62
256
370
-1
  6
CONTINUOUS
 10
220.5751495361328125
 20
16.8125457763671911
 30
0.0
 11
220.6489868164061932
 21
16.8125457763671911
 31
0.0
  0
LINE
  5
64C
100
AcDbEntity
100
AcDbLine
  8
CADDY_2
 62
256
370
-1
  6
CONTINUOUS
 10
220.8704986572265909
 20
16.8125457763671911
 30
0.0
 11
220.9812927246094034
 21
16.8125457763671911
 31
0.0
  0
LINE
  5
64D
100
AcDbEntity
100
AcDbLine
  8
CADDY_2
 62
256
370
-1
  6
CONTINUOUS
 10
221.2766571044921875
 20
16.8125457763671911
 30
0.0
 11
221.3505096435546875
 21
16.8125457763671911
 31
0.0
  0
LINE
  5
64E
100
AcDbEntity
100
AcDbLine
  8
CADDY_2
 62
256
370
-1
  6
CONTINUOUS
 10
221.7197418212890909
 20
16.8125457763671911
 30
0.0
 11
221.7935638427734091
 21
16.8125457763671911
 31
0.0
  0
LINE
  5
64F
100
AcDbEntity
100
AcDbLine
  8
CADDY_2
 62
256
370
-1
  6
CONTINUOUS
 10
205.0310516357421875
 20
16.8492431640625
 30
0.0
 11
205.1418151855469034
 21
16.8492431640625
 31
0.0
  0
LINE
  5
650
100
AcDbEntity
100
AcDbLine
  8
CADDY_2
 62
256
370
-1
  6
CONTINUOUS
 10
205.3633270263671875
 20
16.8492431640625
 30
0.0
 11
205.4740905761719034
 21
16.8492431640625
 31
0.0
  0
LINE
  5
651
100
AcDbEntity
100
AcDbLine
  8
CADDY_2
 62
256
370
-1
  6
CONTINUOUS
 10
205.6956176757811932
 20
16.8492431640625
 30
0.0
 11
205.8432922363280966
 21
16.8492431640625
 31
0.0
  0
LINE
  5
652
100
AcDbEntity
100
AcDbLine
  8
CADDY_2
 62
256
370
-1
  6
CONTINUOUS
 10
206.3233032226561932
 20
16.8492431640625
 30
0.0
 11
206.4340667724609091
 21
16.8492431640625
 31
0.0
  0
LINE
  5
653
100
AcDbEntity
100
AcDbLine
  8
CADDY_2
 62
256
370
-1
  6
CONTINUOUS
 10
206.6555633544921875
 20
16.8492431640625
 30
0.0
 11
206.7663726806640909
 21
16.8492431640625
 31
0.0
  0
LINE
  5
654
100
AcDbEntity
100
AcDbLine
  8
CADDY_2
 62
256
370
-1
  6
CONTINUOUS
 10
206.9878692626953125
 20
16.8492431640625
 30
0.0
 11
207.1355895996094034
 21
16.8492431640625
 31
0.0
  0
LINE
  5
655
100
AcDbEntity
100
AcDbLine
  8
CADDY_2
 62
256
370
-1
  6
CONTINUOUS
 10
207.3571166992188068
 20
16.8492431640625
 30
0.0
 11
207.4309387207030966
 21
16.8492431640625
 31
0.0
  0
LINE
  5
656
100
AcDbEntity
100
AcDbLine
  8
CADDY_2
 62
256
370
-1
  6
CONTINUOUS
 10
207.6155395507811932
 20
16.8492431640625
 30
0.0
 11
207.7263488769530966
 21
16.8492431640625
 31
0.0
  0
LINE
  5
657
100
AcDbEntity
100
AcDbLine
  8
CADDY_2
 62
256
370
-1
  6
CONTINUOUS
 10
207.9109497070311932
 20
16.8492431640625
 30
0.0
 11
207.9848022460938068
 21
16.8492431640625
 31
0.0
  0
LINE
  5
658
100
AcDbEntity
100
AcDbLine
  8
CADDY_2
 62
256
370
-1
  6
CONTINUOUS
 10
208.1694030761719034
 20
16.8492431640625
 30
0.0
 11
208.2801513671875
 21
16.8492431640625
 31
0.0
  0
LINE
  5
659
100
AcDbEntity
100
AcDbLine
  8
CADDY_2
 62
256
370
-1
  6
CONTINUOUS
 10
208.4647979736328125
 20
16.8492431640625
 30
0.0
 11
208.5755157470703125
 21
16.8492431640625
 31
0.0
  0
LINE
  5
65A
100
AcDbEntity
100
AcDbLine
  8
CADDY_2
 62
256
370
-1
  6
CONTINUOUS
 10
208.7232055664061932
 20
16.8492431640625
 30
0.0
 11
208.8709106445311932
 21
16.8492431640625
 31
0.0
  0
LINE
  5
65B
100
AcDbEntity
100
AcDbLine
  8
CADDY_2
 62
256
370
-1
  6
CONTINUOUS
 10
209.2032165527344034
 20
16.8492431640625
 30
0.0
 11
209.31396484375
 21
16.8492431640625
 31
0.0
  0
LINE
  5
65C
100
AcDbEntity
100
AcDbLine
  8
CADDY_2
 62
256
370
-1
  6
CONTINUOUS
 10
209.4985809326171875
 20
16.8492431640625
 30
0.0
 11
209.6093597412109091
 21
16.8492431640625
 31
0.0
  0
LINE
  5
65D
100
AcDbEntity
100
AcDbLine
  8
CADDY_2
 62
256
370
-1
  6
CONTINUOUS
 10
209.941650390625
 20
16.8492431640625
 30
0.0
 11
210.0893402099609091
 21
16.8492431640625
 31
0.0
  0
LINE
  5
65E
100
AcDbEntity
100
AcDbLine
  8
CADDY_2
 62
256
370
-1
  6
CONTINUOUS
 10
210.4585418701171875
 20
16.8492431640625
 30
0.0
 11
210.6431427001953125
 21
16.8492431640625
 31
0.0
  0
LINE
  5
65F
100
AcDbEntity
100
AcDbLine
  8
CADDY_2
 62
256
370
-1
  6
CONTINUOUS
 10
211.0862274169921875
 20
16.8492431640625
 30
0.0
 11
211.1600494384765909
 21
16.8492431640625
 31
0.0
  0
LINE
  5
660
100
AcDbEntity
100
AcDbLine
  8
CADDY_2
 62
256
370
-1
  6
CONTINUOUS
 10
211.6400756835938068
 20
16.8492431640625
 30
0.0
 11
211.7138824462890909
 21
16.8492431640625
 31
0.0
  0
LINE
  5
661
100
AcDbEntity
100
AcDbLine
  8
CADDY_2
 62
256
370
-1
  6
CONTINUOUS
 10
211.8246765136719034
 20
16.8492431640625
 30
0.0
 11
211.9354095458984091
 21
16.8492431640625
 31
0.0
  0
LINE
  5
662
100
AcDbEntity
100
AcDbLine
  8
CADDY_2
 62
256
370
-1
  6
CONTINUOUS
 10
212.2677459716796875
 20
16.8492431640625
 30
0.0
 11
212.3784790039061932
 21
16.8492431640625
 31
0.0
  0
LINE
  5
663
100
AcDbEntity
100
AcDbLine
  8
CADDY_2
 62
256
370
-1
  6
CONTINUOUS
 10
212.5630798339844034
 20
16.8492431640625
 30
0.0
 11
212.7476806640625
 21
16.8492431640625
 31
0.0
  0
LINE
  5
664
100
AcDbEntity
100
AcDbLine
  8
CADDY_2
 62
256
370
-1
  6
CONTINUOUS
 10
212.8953857421875
 20
16.8492431640625
 30
0.0
 11
213.0430755615234091
 21
16.8492431640625
 31
0.0
  0
LINE
  5
665
100
AcDbEntity
100
AcDbLine
  8
CADDY_2
 62
256
370
-1
  6
CONTINUOUS
 10
213.3384552001953125
 20
16.8492431640625
 30
0.0
 11
213.4861297607421875
 21
16.8492431640625
 31
0.0
  0
LINE
  5
666
100
AcDbEntity
100
AcDbLine
  8
CADDY_2
 62
256
370
-1
  6
CONTINUOUS
 10
213.74462890625
 20
16.8492431640625
 30
0.0
 11
213.8922882080078125
 21
16.8492431640625
 31
0.0
  0
LINE
  5
667
100
AcDbEntity
100
AcDbLine
  8
CADDY_2
 62
256
370
-1
  6
CONTINUOUS
 10
214.1138305664061932
 20
16.8492431640625
 30
0.0
 11
214.2615051269530966
 21
16.8492431640625
 31
0.0
  0
LINE
  5
668
100
AcDbEntity
100
AcDbLine
  8
CADDY_2
 62
256
370
-1
  6
CONTINUOUS
 10
214.5937805175780966
 20
16.8492431640625
 30
0.0
 11
214.7046051025390909
 21
16.8492431640625
 31
0.0
  0
LINE
  5
669
100
AcDbEntity
100
AcDbLine
  8
CADDY_2
 62
256
370
-1
  6
CONTINUOUS
 10
214.9261016845703125
 20
16.8492431640625
 30
0.0
 11
215.0368804931640909
 21
16.8492431640625
 31
0.0
  0
LINE
  5
66A
100
AcDbEntity
100
AcDbLine
  8
CADDY_2
 62
256
370
-1
  6
CONTINUOUS
 10
215.2584075927734091
 20
16.8492431640625
 30
0.0
 11
215.3691558837890909
 21
16.8492431640625
 31
0.0
  0
LINE
  5
66B
100
AcDbEntity
100
AcDbLine
  8
CADDY_2
 62
256
370
-1
  6
CONTINUOUS
 10
215.5537567138671875
 20
16.8492431640625
 30
0.0
 11
215.7014617919921875
 21
16.8492431640625
 31
0.0
  0
LINE
  5
66C
100
AcDbEntity
100
AcDbLine
  8
CADDY_2
 62
256
370
-1
  6
CONTINUOUS
 10
216.0337677001953125
 20
16.8492431640625
 30
0.0
 11
216.1445159912109091
 21
16.8492431640625
 31
0.0
  0
LINE
  5
66D
100
AcDbEntity
100
AcDbLine
  8
CADDY_2
 62
256
370
-1
  6
CONTINUOUS
 10
216.3660583496094034
 20
16.8492431640625
 30
0.0
 11
216.476806640625
 21
16.8492431640625
 31
0.0
  0
LINE
  5
66E
100
AcDbEntity
100
AcDbLine
  8
CADDY_2
 62
256
370
-1
  6
CONTINUOUS
 10
216.6245269775390909
 20
16.8492431640625
 30
0.0
 11
216.7722015380859091
 21
16.8492431640625
 31
0.0
  0
LINE
  5
66F
100
AcDbEntity
100
AcDbLine
  8
CADDY_2
 62
256
370
-1
  6
CONTINUOUS
 10
217.2521820068359091
 20
16.8492431640625
 30
0.0
 11
217.3260192871094034
 21
16.8492431640625
 31
0.0
  0
LINE
  5
670
100
AcDbEntity
100
AcDbLine
  8
CADDY_2
 62
256
370
-1
  6
CONTINUOUS
 10
217.8059844970703125
 20
16.8492431640625
 30
0.0
 11
217.9537048339844034
 21
16.8492431640625
 31
0.0
  0
LINE
  5
671
100
AcDbEntity
100
AcDbLine
  8
CADDY_2
 62
256
370
-1
  6
CONTINUOUS
 10
218.2490692138671875
 20
16.8492431640625
 30
0.0
 11
218.3598480224609091
 21
16.8492431640625
 31
0.0
  0
LINE
  5
672
100
AcDbEntity
100
AcDbLine
  8
CADDY_2
 62
256
370
-1
  6
CONTINUOUS
 10
218.9505615234375
 20
16.8492431640625
 30
0.0
 11
219.0613708496094034
 21
16.8492431640625
 31
0.0
  0
LINE
  5
673
100
AcDbEntity
100
AcDbLine
  8
CADDY_2
 62
256
370
-1
  6
CONTINUOUS
 10
219.2090301513671875
 20
16.8492431640625
 30
0.0
 11
219.3936309814453125
 21
16.8492431640625
 31
0.0
  0
LINE
  5
674
100
AcDbEntity
100
AcDbLine
  8
CADDY_2
 62
256
370
-1
  6
CONTINUOUS
 10
219.6151885986328125
 20
16.8492431640625
 30
0.0
 11
219.7628479003905966
 21
16.8492431640625
 31
0.0
  0
LINE
  5
675
100
AcDbEntity
100
AcDbLine
  8
CADDY_2
 62
256
370
-1
  6
CONTINUOUS
 10
220.132080078125
 20
16.8492431640625
 30
0.0
 11
220.3166809082030966
 21
16.8492431640625
 31
0.0
  0
LINE
  5
676
100
AcDbEntity
100
AcDbLine
  8
CADDY_2
 62
256
370
-1
  6
CONTINUOUS
 10
220.5751495361328125
 20
16.8492431640625
 30
0.0
 11
220.6858978271484091
 21
16.8492431640625
 31
0.0
  0
LINE
  5
677
100
AcDbEntity
100
AcDbLine
  8
CADDY_2
 62
256
370
-1
  6
CONTINUOUS
 10
220.8335876464844034
 20
16.8492431640625
 30
0.0
 11
220.9812927246094034
 21
16.8492431640625
 31
0.0
  0
LINE
  5
678
100
AcDbEntity
100
AcDbLine
  8
CADDY_2
 62
256
370
-1
  6
CONTINUOUS
 10
221.2766571044921875
 20
16.8492431640625
 30
0.0
 11
221.4243469238280966
 21
16.8492431640625
 31
0.0
  0
LINE
  5
679
100
AcDbEntity
100
AcDbLine
  8
CADDY_2
 62
256
370
-1
  6
CONTINUOUS
 10
221.7197418212890909
 20
16.8492431640625
 30
0.0
 11
221.867431640625
 21
16.8492431640625
 31
0.0
  0
LINE
  5
67A
100
AcDbEntity
100
AcDbLine
  8
CADDY_2
 62
256
370
-1
  6
CONTINUOUS
 10
204.9571990966796875
 20
16.8859558105468786
 30
0.0
 11
205.4740905761719034
 21
16.8859558105468786
 31
0.0
  0
LINE
  5
67B
100
AcDbEntity
100
AcDbLine
  8
CADDY_2
 62
256
370
-1
  6
CONTINUOUS
 10
205.6218109130859091
 20
16.8859558105468786
 30
0.0
 11
205.9171600341796875
 21
16.8859558105468786
 31
0.0
  0
LINE
  5
67C
100
AcDbEntity
100
AcDbLine
  8
CADDY_2
 62
256
370
-1
  6
CONTINUOUS
 10
206.2494659423828125
 20
16.8859558105468786
 30
0.0
 11
206.7663726806640909
 21
16.8859558105468786
 31
0.0
  0
LINE
  5
67D
100
AcDbEntity
100
AcDbLine
  8
CADDY_2
 62
256
370
-1
  6
CONTINUOUS
 10
206.9140625
 20
16.8859558105468786
 30
0.0
 11
207.2094421386719034
 21
16.8859558105468786
 31
0.0
  0
LINE
  5
67E
100
AcDbEntity
100
AcDbLine
  8
CADDY_2
 62
256
370
-1
  6
CONTINUOUS
 10
207.3201904296875
 20
16.8859558105468786
 30
0.0
 11
207.5048217773438068
 21
16.8859558105468786
 31
0.0
  0
LINE
  5
67F
100
AcDbEntity
100
AcDbLine
  8
CADDY_2
 62
256
370
-1
  6
CONTINUOUS
 10
207.6525115966796875
 20
16.8859558105468786
 30
0.0
 11
208.2801513671875
 21
16.8859558105468786
 31
0.0
  0
LINE
  5
680
100
AcDbEntity
100
AcDbLine
  8
CADDY_2
 62
256
370
-1
  6
CONTINUOUS
 10
208.3909149169921875
 20
16.8859558105468786
 30
0.0
 11
208.8339996337890909
 21
16.8859558105468786
 31
0.0
  0
LINE
  5
681
100
AcDbEntity
100
AcDbLine
  8
CADDY_2
 62
256
370
-1
  6
CONTINUOUS
 10
209.31396484375
 20
16.8859558105468786
 30
0.0
 11
209.5354919433594034
 21
16.8859558105468786
 31
0.0
  0
LINE
  5
682
100
AcDbEntity
100
AcDbLine
  8
CADDY_2
 62
256
370
-1
  6
CONTINUOUS
 10
209.8677825927734091
 20
16.8859558105468786
 30
0.0
 11
210.0893402099609091
 21
16.8859558105468786
 31
0.0
  0
LINE
  5
683
100
AcDbEntity
100
AcDbLine
  8
CADDY_2
 62
256
370
-1
  6
CONTINUOUS
 10
210.4954528808594034
 20
16.8859558105468786
 30
0.0
 11
210.7170257568359091
 21
16.8859558105468786
 31
0.0
  0
LINE
  5
684
100
AcDbEntity
100
AcDbLine
  8
CADDY_2
 62
256
370
-1
  6
CONTINUOUS
 10
211.1231536865234091
 20
16.8859558105468786
 30
0.0
 11
211.1600494384765909
 21
16.8859558105468786
 31
0.0
  0
LINE
  5
685
100
AcDbEntity
100
AcDbLine
  8
CADDY_2
 62
256
370
-1
  6
CONTINUOUS
 10
211.677001953125
 20
16.8859558105468786
 30
0.0
 11
211.9354095458984091
 21
16.8859558105468786
 31
0.0
  0
LINE
  5
686
100
AcDbEntity
100
AcDbLine
  8
CADDY_2
 62
256
370
-1
  6
CONTINUOUS
 10
212.3784790039061932
 20
16.8859558105468786
 30
0.0
 11
212.6369781494140909
 21
16.8859558105468786
 31
0.0
  0
LINE
  5
687
100
AcDbEntity
100
AcDbLine
  8
CADDY_2
 62
256
370
-1
  6
CONTINUOUS
 10
212.7107849121094034
 20
16.8859558105468786
 30
0.0
 11
212.7476806640625
 21
16.8859558105468786
 31
0.0
  0
LINE
  5
688
100
AcDbEntity
100
AcDbLine
  8
CADDY_2
 62
256
370
-1
  6
CONTINUOUS
 10
212.8215637207030966
 20
16.8859558105468786
 30
0.0
 11
213.1169281005859091
 21
16.8859558105468786
 31
0.0
  0
LINE
  5
689
100
AcDbEntity
100
AcDbLine
  8
CADDY_2
 62
256
370
-1
  6
CONTINUOUS
 10
213.2646179199219034
 20
16.8859558105468786
 30
0.0
 11
213.5600280761719034
 21
16.8859558105468786
 31
0.0
  0
LINE
  5
68A
100
AcDbEntity
100
AcDbLine
  8
CADDY_2
 62
256
370
-1
  6
CONTINUOUS
 10
213.6707305908203125
 20
16.8859558105468786
 30
0.0
 11
213.9661254882811932
 21
16.8859558105468786
 31
0.0
  0
LINE
  5
68B
100
AcDbEntity
100
AcDbLine
  8
CADDY_2
 62
256
370
-1
  6
CONTINUOUS
 10
214.0399780273438068
 20
16.8859558105468786
 30
0.0
 11
214.2615051269530966
 21
16.8859558105468786
 31
0.0
  0
LINE
  5
68C
100
AcDbEntity
100
AcDbLine
  8
CADDY_2
 62
256
370
-1
  6
CONTINUOUS
 10
214.5199890136719034
 20
16.8859558105468786
 30
0.0
 11
214.7783966064453125
 21
16.8859558105468786
 31
0.0
  0
LINE
  5
68D
100
AcDbEntity
100
AcDbLine
  8
CADDY_2
 62
256
370
-1
  6
CONTINUOUS
 10
214.8522644042969034
 20
16.8859558105468786
 30
0.0
 11
215.3691558837890909
 21
16.8859558105468786
 31
0.0
  0
LINE
  5
68E
100
AcDbEntity
100
AcDbLine
  8
CADDY_2
 62
256
370
-1
  6
CONTINUOUS
 10
215.4799652099609091
 20
16.8859558105468786
 30
0.0
 11
215.7014617919921875
 21
16.8859558105468786
 31
0.0
  0
LINE
  5
68F
100
AcDbEntity
100
AcDbLine
  8
CADDY_2
 62
256
370
-1
  6
CONTINUOUS
 10
215.9599151611328125
 20
16.8859558105468786
 30
0.0
 11
216.2183685302734091
 21
16.8859558105468786
 31
0.0
  0
LINE
  5
690
100
AcDbEntity
100
AcDbLine
  8
CADDY_2
 62
256
370
-1
  6
CONTINUOUS
 10
216.2922058105469034
 20
16.8859558105468786
 30
0.0
 11
216.7352752685546875
 21
16.8859558105468786
 31
0.0
  0
LINE
  5
691
100
AcDbEntity
100
AcDbLine
  8
CADDY_2
 62
256
370
-1
  6
CONTINUOUS
 10
217.2890930175780966
 20
16.8859558105468786
 30
0.0
 11
217.3260192871094034
 21
16.8859558105468786
 31
0.0
  0
LINE
  5
692
100
AcDbEntity
100
AcDbLine
  8
CADDY_2
 62
256
370
-1
  6
CONTINUOUS
 10
217.732177734375
 20
16.8859558105468786
 30
0.0
 11
218.0275573730469034
 21
16.8859558105468786
 31
0.0
  0
LINE
  5
693
100
AcDbEntity
100
AcDbLine
  8
CADDY_2
 62
256
370
-1
  6
CONTINUOUS
 10
218.1751861572265909
 20
16.8859558105468786
 30
0.0
 11
218.4336700439453125
 21
16.8859558105468786
 31
0.0
  0
LINE
  5
694
100
AcDbEntity
100
AcDbLine
  8
CADDY_2
 62
256
370
-1
  6
CONTINUOUS
 10
219.0244293212890909
 20
16.8859558105468786
 30
0.0
 11
219.2828674316405966
 21
16.8859558105468786
 31
0.0
  0
LINE
  5
695
100
AcDbEntity
100
AcDbLine
  8
CADDY_2
 62
256
370
-1
  6
CONTINUOUS
 10
219.3567199707030966
 20
16.8859558105468786
 30
0.0
 11
219.3936309814453125
 21
16.8859558105468786
 31
0.0
  0
LINE
  5
696
100
AcDbEntity
100
AcDbLine
  8
CADDY_2
 62
256
370
-1
  6
CONTINUOUS
 10
219.5413360595703125
 20
16.8859558105468786
 30
0.0
 11
219.7628479003905966
 21
16.8859558105468786
 31
0.0
  0
LINE
  5
697
100
AcDbEntity
100
AcDbLine
  8
CADDY_2
 62
256
370
-1
  6
CONTINUOUS
 10
220.1690063476561932
 20
16.8859558105468786
 30
0.0
 11
220.3905334472655966
 21
16.8859558105468786
 31
0.0
  0
LINE
  5
698
100
AcDbEntity
100
AcDbLine
  8
CADDY_2
 62
256
370
-1
  6
CONTINUOUS
 10
220.5012969970703125
 20
16.8859558105468786
 30
0.0
 11
220.9443817138671875
 21
16.8859558105468786
 31
0.0
  0
LINE
  5
699
100
AcDbEntity
100
AcDbLine
  8
CADDY_2
 62
256
370
-1
  6
CONTINUOUS
 10
221.2027893066405966
 20
16.8859558105468786
 30
0.0
 11
221.4981994628905966
 21
16.8859558105468786
 31
0.0
  0
LINE
  5
69A
100
AcDbEntity
100
AcDbLine
  8
CADDY_2
 62
256
370
-1
  6
CONTINUOUS
 10
221.6458587646484091
 20
16.8859558105468786
 30
0.0
 11
221.9412536621094034
 21
16.8859558105468786
 31
0.0
  0
ENDBLK
  5
69B
100
AcDbEntity
  8
0
100
AcDbBlockEnd
  0
BLOCK
  5
69C
100
AcDbEntity
  8
0
100
AcDbBlockBegin
  2
BLK5
 70
0
 10
0.0
 20
0.0
 30
0.0
  3
BLK5
  1

  0
MTEXT
  5
69D
100
AcDbEntity
100
AcDbMText
  8
CADDY_1
 62
256
370
-1
  6
ByLayer
 10
133.5
 20
95.7999999821186066
 30
0.0
 40
2.799999937415123
 41
100.0
 71
7
 72
2
  1
Steckplatz:
  7
CADDY_VECTORFONT1P
 50
0.0
 73
0
 44
1.0
  0
MTEXT
  5
69E
100
AcDbEntity
100
AcDbMText
  8
CADDY_1
 62
256
370
-1
  6
ByLayer
 10
133.5
 20
91.7999999821186066
 30
0.0
 40
2.799999937415123
 41
100.0
 71
7
 72
2
  1

  7
CADDY_VECTORFONT1P
 50
0.0
 73
0
 44
1.0
  0
MTEXT
  5
69F
100
AcDbEntity
100
AcDbMText
  8
CADDY_1
 62
256
370
-1
  6
ByLayer
 10
161.0
 20
95.7999999821186066
 30
0.0
 40
2.799999937415123
 41
100.0
 71
7
 72
2
  1
on\~board
  7
CADDY_VECTORFONT1P
 50
0.0
 73
0
 44
1.0
  0
MTEXT
  5
6A0
100
AcDbEntity
100
AcDbMText
  8
CADDY_1
 62
256
370
-1
  6
ByLayer
 10
286.500079318880978
 20
95.7999999821186066
 30
0.0
 40
2.799999937415123
 41
100.0
 71
9
 72
2
  1
Teil\~5\~von\~5
  7
CADDY_VECTORFONT1P
 50
0.0
 73
0
 44
1.0
  0
LINE
  5
6A1
100
AcDbEntity
100
AcDbLine
  8
CADDY_1
 62
256
370
-1
  6
CONTINUOUS
 10
127.4999847412108949
 20
115.0
 30
0.0
 11
292.5
 21
115.0
 31
0.0
  0
LINE
  5
6A2
100
AcDbEntity
100
AcDbLine
  8
CADDY_1
 62
256
370
-1
  6
CONTINUOUS
 10
127.4999847412108949
 20
135.0
 30
0.0
 11
292.5
 21
135.0
 31
0.0
  0
LINE
  5
6A3
100
AcDbEntity
100
AcDbLine
  8
CADDY_1
 62
256
370
-1
  6
CONTINUOUS
 10
292.5
 20
135.0
 30
0.0
 11
292.5
 21
90.0
 31
0.0
  0
LINE
  5
6A4
100
AcDbEntity
100
AcDbLine
  8
CADDY_1
 62
256
370
-1
  6
CONTINUOUS
 10
292.5
 20
90.0
 30
0.0
 11
127.4999847412108949
 21
90.0
 31
0.0
  0
LINE
  5
6A5
100
AcDbEntity
100
AcDbLine
  8
CADDY_1
 62
256
370
-1
  6
CONTINUOUS
 10
127.4999847412108949
 20
90.0
 30
0.0
 11
127.4999847412108949
 21
135.0
 31
0.0
  0
LINE
  5
6A6
100
AcDbEntity
100
AcDbLine
  8
CADDY_1
 62
256
370
-1
  6
CONTINUOUS
 10
135.0
 20
115.0
 30
0.0
 11
135.0
 21
133.0
 31
0.0
  0
CIRCLE
  5
6A7
100
AcDbEntity
100
AcDbCircle
  8
CADDY_1
 62
256
370
-1
  6
CONTINUOUS
 10
135.0
 20
134.0
 30
0.0
 40
1.0
  0
LINE
  5
6A8
100
AcDbEntity
100
AcDbLine
  8
CADDY_1
 62
256
370
-1
  6
CONTINUOUS
 10
155.0
 20
115.0
 30
0.0
 11
155.0
 21
133.0
 31
0.0
  0
CIRCLE
  5
6A9
100
AcDbEntity
100
AcDbCircle
  8
CADDY_1
 62
256
370
-1
  6
CONTINUOUS
 10
155.0
 20
134.0
 30
0.0
 40
1.0
  0
MTEXT
  5
6AA
100
AcDbEntity
100
AcDbMText
  8
CADDY_1
 62
256
370
-1
  6
ByLayer
 10
135.000006091780989
 20
110.5999999865889976
 30
0.0
 40
2.0999999530613418
 41
100.0
 71
8
 72
2
  1
US
  7
CADDY_VECTORFONT1P
 50
0.0
 73
0
 44
1.0
  0
MTEXT
  5
6AB
100
AcDbEntity
100
AcDbMText
  8
CADDY_1
 62
256
370
-1
  6
ByLayer
 10
155.000006091780989
 20
110.5999999865889976
 30
0.0
 40
2.0999999530613418
 41
100.0
 71
8
 72
2
  1
ULS
  7
CADDY_VECTORFONT1P
 50
0.0
 73
0
 44
1.0
  0
MTEXT
  5
6AC
100
AcDbEntity
100
AcDbMText
  8
CADDY_1
 62
256
370
-1
  6
ByLayer
 10
133.5
 20
100.7999999821186066
 30
0.0
 40
2.799999937415123
 41
100.0
 71
7
 72
2
  1
PWR\~IN
  7
CADDY_VECTORFONT1P
 50
0.0
 73
0
 44
1.0
  0
LINE
  5
6AD
100
AcDbEntity
100
AcDbLine
  8
CADDY_1
 62
256
370
-1
  6
CONTINUOUS
 10
175.0
 20
115.0
 30
0.0
 11
175.0
 21
133.0
 31
0.0
  0
CIRCLE
  5
6AE
100
AcDbEntity
100
AcDbCircle
  8
CADDY_1
 62
256
370
-1
  6
CONTINUOUS
 10
175.0
 20
134.0
 30
0.0
 40
1.0
  0
LINE
  5
6AF
100
AcDbEntity
100
AcDbLine
  8
CADDY_1
 62
256
370
-1
  6
CONTINUOUS
 10
195.0
 20
115.0
 30
0.0
 11
195.0
 21
133.0
 31
0.0
  0
CIRCLE
  5
6B0
100
AcDbEntity
100
AcDbCircle
  8
CADDY_1
 62
256
370
-1
  6
CONTINUOUS
 10
195.0
 20
134.0
 30
0.0
 40
1.0
  0
MTEXT
  5
6B1
100
AcDbEntity
100
AcDbMText
  8
CADDY_1
 62
256
370
-1
  6
ByLayer
 10
175.000006091780989
 20
110.5999999865889976
 30
0.0
 40
2.0999999530613418
 41
100.0
 71
8
 72
2
  1
GND
  7
CADDY_VECTORFONT1P
 50
0.0
 73
0
 44
1.0
  0
MTEXT
  5
6B2
100
AcDbEntity
100
AcDbMText
  8
CADDY_1
 62
256
370
-1
  6
ByLayer
 10
195.0000030416995003
 20
110.5999999865889976
 30
0.0
 40
2.0999999530613418
 41
100.0
 71
8
 72
2
  1
PE
  7
CADDY_VECTORFONT1P
 50
0.0
 73
0
 44
1.0
  0
LINE
  5
6B3
100
AcDbEntity
100
AcDbLine
  8
CADDY_1
 62
256
370
-1
  6
CONTINUOUS
 10
265.0
 20
115.0
 30
0.0
 11
265.0
 21
133.0
 31
0.0
  0
CIRCLE
  5
6B4
100
AcDbEntity
100
AcDbCircle
  8
CADDY_1
 62
256
370
-1
  6
CONTINUOUS
 10
265.0
 20
134.0
 30
0.0
 40
1.0
  0
LINE
  5
6B5
100
AcDbEntity
100
AcDbLine
  8
CADDY_1
 62
256
370
-1
  6
CONTINUOUS
 10
285.0
 20
115.0
 30
0.0
 11
285.0
 21
133.0
 31
0.0
  0
CIRCLE
  5
6B6
100
AcDbEntity
100
AcDbCircle
  8
CADDY_1
 62
256
370
-1
  6
CONTINUOUS
 10
285.0
 20
134.0
 30
0.0
 40
1.0
  0
MTEXT
  5
6B7
100
AcDbEntity
100
AcDbMText
  8
CADDY_1
 62
256
370
-1
  6
ByLayer
 10
265.0000060917810174
 20
110.5999999865889976
 30
0.0
 40
2.0999999530613418
 41
100.0
 71
8
 72
2
  1
GND
  7
CADDY_VECTORFONT1P
 50
0.0
 73
0
 44
1.0
  0
MTEXT
  5
6B8
100
AcDbEntity
100
AcDbMText
  8
CADDY_1
 62
256
370
-1
  6
ByLayer
 10
285.0000030416994719
 20
110.5999999865889976
 30
0.0
 40
2.0999999530613418
 41
100.0
 71
8
 72
2
  1
PE
  7
CADDY_VECTORFONT1P
 50
0.0
 73
0
 44
1.0
  0
LINE
  5
6B9
100
AcDbEntity
100
AcDbLine
  8
CADDY_1
 62
256
370
-1
  6
CONTINUOUS
 10
225.0
 20
115.0
 30
0.0
 11
225.0
 21
133.0
 31
0.0
  0
CIRCLE
  5
6BA
100
AcDbEntity
100
AcDbCircle
  8
CADDY_1
 62
256
370
-1
  6
CONTINUOUS
 10
225.0
 20
134.0
 30
0.0
 40
1.0
  0
LINE
  5
6BB
100
AcDbEntity
100
AcDbLine
  8
CADDY_1
 62
256
370
-1
  6
CONTINUOUS
 10
245.0
 20
115.0
 30
0.0
 11
245.0
 21
133.0
 31
0.0
  0
CIRCLE
  5
6BC
100
AcDbEntity
100
AcDbCircle
  8
CADDY_1
 62
256
370
-1
  6
CONTINUOUS
 10
245.0
 20
134.0
 30
0.0
 40
1.0
  0
MTEXT
  5
6BD
100
AcDbEntity
100
AcDbMText
  8
CADDY_1
 62
256
370
-1
  6
ByLayer
 10
225.0000091418623924
 20
110.5999999865889976
 30
0.0
 40
2.0999999530613418
 41
100.0
 71
8
 72
2
  1
UM
  7
CADDY_VECTORFONT1P
 50
0.0
 73
0
 44
1.0
  0
MTEXT
  5
6BE
100
AcDbEntity
100
AcDbMText
  8
CADDY_1
 62
256
370
-1
  6
ByLayer
 10
245.0000091418623924
 20
110.5999999865889976
 30
0.0
 40
2.0999999530613418
 41
100.0
 71
8
 72
2
  1
UM
  7
CADDY_VECTORFONT1P
 50
0.0
 73
0
 44
1.0
  0
MTEXT
  5
6BF
100
AcDbEntity
100
AcDbMText
  8
CADDY_1
 62
256
370
-1
  6
ByLayer
 10
135.0000030416995003
 20
106.8499999865889976
 30
0.0
 40
2.0999999530613418
 41
100.0
 71
8
 72
2
  1
+24VDC
  7
CADDY_VECTORFONT1P
 50
0.0
 73
0
 44
1.0
  0
MTEXT
  5
6C0
100
AcDbEntity
100
AcDbMText
  8
CADDY_1
 62
256
370
-1
  6
ByLayer
 10
155.0000030416995003
 20
106.8499999865889976
 30
0.0
 40
2.0999999530613418
 41
100.0
 71
8
 72
2
  1
+24VDC
  7
CADDY_VECTORFONT1P
 50
0.0
 73
0
 44
1.0
  0
MTEXT
  5
6C1
100
AcDbEntity
100
AcDbMText
  8
CADDY_1
 62
256
370
-1
  6
ByLayer
 10
225.0000030416995003
 20
106.8499999865889976
 30
0.0
 40
2.0999999530613418
 41
100.0
 71
8
 72
2
  1
+24VDC
  7
CADDY_VECTORFONT1P
 50
0.0
 73
0
 44
1.0
  0
MTEXT
  5
6C2
100
AcDbEntity
100
AcDbMText
  8
CADDY_1
 62
256
370
-1
  6
ByLayer
 10
245.0000030416995003
 20
106.8499999865889976
 30
0.0
 40
2.0999999530613418
 41
100.0
 71
8
 72
2
  1
+24VDC
  7
CADDY_VECTORFONT1P
 50
0.0
 73
0
 44
1.0
  0
MTEXT
  5
6C3
100
AcDbEntity
100
AcDbMText
  8
CADDY_1
 62
256
370
-1
  6
ByLayer
 10
139.4000000134109882
 20
115.6000061035155966
 30
0.0
 40
2.0999999530613418
 41
100.0
 71
7
 72
2
  1
Segment-
  7
CADDY_VECTORFONT1P
 50
90.0
 73
0
 44
1.0
  0
MTEXT
  5
6C4
100
AcDbEntity
100
AcDbMText
  8
CADDY_1
 62
256
370
-1
  6
ByLayer
 10
144.3899997845292091
 20
115.600011825561495
 30
0.0
 40
2.0999999530613418
 41
100.0
 71
7
 72
2
  1
spannung
  7
CADDY_VECTORFONT1P
 50
90.0
 73
0
 44
1.0
  0
MTEXT
  5
6C5
100
AcDbEntity
100
AcDbMText
  8
CADDY_1
 62
256
370
-1
  6
ByLayer
 10
159.4000000134109882
 20
115.6000061035155966
 30
0.0
 40
2.0999999530613418
 41
100.0
 71
7
 72
2
  1
Versorgungs-
  7
CADDY_VECTORFONT1P
 50
90.0
 73
0
 44
1.0
  0
MTEXT
  5
6C6
100
AcDbEntity
100
AcDbMText
  8
CADDY_1
 62
256
370
-1
  6
ByLayer
 10
164.3899997845292091
 20
115.600011825561495
 30
0.0
 40
2.0999999530613418
 41
100.0
 71
7
 72
2
  1
spannung
  7
CADDY_VECTORFONT1P
 50
90.0
 73
0
 44
1.0
  0
MTEXT
  5
6C7
100
AcDbEntity
100
AcDbMText
  8
CADDY_1
 62
256
370
-1
  6
ByLayer
 10
229.4000000134109882
 20
115.6000061035155966
 30
0.0
 40
2.0999999530613418
 41
100.0
 71
7
 72
2
  1
Haupt-
  7
CADDY_VECTORFONT1P
 50
90.0
 73
0
 44
1.0
  0
MTEXT
  5
6C8
100
AcDbEntity
100
AcDbMText
  8
CADDY_1
 62
256
370
-1
  6
ByLayer
 10
234.3899997845292091
 20
115.600011825561495
 30
0.0
 40
2.0999999530613418
 41
100.0
 71
7
 72
2
  1
spannung
  7
CADDY_VECTORFONT1P
 50
90.0
 73
0
 44
1.0
  0
MTEXT
  5
6C9
100
AcDbEntity
100
AcDbMText
  8
CADDY_1
 62
256
370
-1
  6
ByLayer
 10
249.4000000134109882
 20
115.6000061035155966
 30
0.0
 40
2.0999999530613418
 41
100.0
 71
7
 72
2
  1
Haupt-
  7
CADDY_VECTORFONT1P
 50
90.0
 73
0
 44
1.0
  0
MTEXT
  5
6CA
100
AcDbEntity
100
AcDbMText
  8
CADDY_1
 62
256
370
-1
  6
ByLayer
 10
254.3899997845292091
 20
115.600011825561495
 30
0.0
 40
2.0999999530613418
 41
100.0
 71
7
 72
2
  1
spannung
  7
CADDY_VECTORFONT1P
 50
90.0
 73
0
 44
1.0
  0
ENDBLK
  5
6CB
100
AcDbEntity
  8
0
100
AcDbBlockEnd
  0
BLOCK
  5
6CC
100
AcDbEntity
  8
0
100
AcDbBlockBegin
  2
BLK6
 70
0
 10
0.0
 20
0.0
 30
0.0
  3
BLK6
  1

  0
LINE
  5
6CD
100
AcDbEntity
100
AcDbLine
  8
CADDY_1
 62
256
370
-1
  6
CONTINUOUS
 10
25.0
 20
270.0
 30
0.0
 11
23.0
 21
271.0
 31
0.0
  0
LINE
  5
6CE
100
AcDbEntity
100
AcDbLine
  8
CADDY_1
 62
256
370
-1
  6
CONTINUOUS
 10
25.0
 20
270.0
 30
0.0
 11
23.0
 21
269.0
 31
0.0
  0
LINE
  5
6CF
100
AcDbEntity
100
AcDbLine
  8
CADDY_1
 62
256
370
-1
  6
CONTINUOUS
 10
25.0
 20
270.0
 30
0.0
 11
30.0
 21
270.0
 31
0.0
  0
ENDBLK
  5
6D0
100
AcDbEntity
  8
0
100
AcDbBlockEnd
  0
BLOCK
  5
6D1
100
AcDbEntity
  8
0
100
AcDbBlockBegin
  2
BLK7
 70
0
 10
0.0
 20
0.0
 30
0.0
  3
BLK7
  1

  0
CIRCLE
  5
6D2
100
AcDbEntity
100
AcDbCircle
  8
CADDY_1
 62
256
370
-1
  6
CONTINUOUS
 10
175.0
 20
257.5
 30
0.0
 40
1.0
  0
LINE
  5
6D3
100
AcDbEntity
100
AcDbLine
  8
CADDY_1
 62
256
370
-1
  6
CONTINUOUS
 10
175.0
 20
260.0
 30
0.0
 11
175.0
 21
258.5
 31
0.0
  0
LINE
  5
6D4
100
AcDbEntity
100
AcDbLine
  8
CADDY_1
 62
256
370
-1
  6
CONTINUOUS
 10
175.0
 20
256.5
 30
0.0
 11
175.0
 21
255.0
 31
0.0
  0
ENDBLK
  5
6D5
100
AcDbEntity
  8
0
100
AcDbBlockEnd
  0
BLOCK
  5
6D6
100
AcDbEntity
  8
0
100
AcDbBlockBegin
  2
BLK8
 70
0
 10
0.0
 20
0.0
 30
0.0
  3
BLK8
  1

  0
CIRCLE
  5
6D7
100
AcDbEntity
100
AcDbCircle
  8
CADDY_1
 62
256
370
-1
  6
CONTINUOUS
 10
195.0
 20
257.5
 30
0.0
 40
1.0
  0
LINE
  5
6D8
100
AcDbEntity
100
AcDbLine
  8
CADDY_1
 62
256
370
-1
  6
CONTINUOUS
 10
195.0
 20
260.0
 30
0.0
 11
195.0
 21
258.5
 31
0.0
  0
LINE
  5
6D9
100
AcDbEntity
100
AcDbLine
  8
CADDY_1
 62
256
370
-1
  6
CONTINUOUS
 10
195.0
 20
256.5
 30
0.0
 11
195.0
 21
255.0
 31
0.0
  0
ENDBLK
  5
6DA
100
AcDbEntity
  8
0
100
AcDbBlockEnd
  0
BLOCK
  5
6DB
100
AcDbEntity
  8
0
100
AcDbBlockBegin
  2
BLK9
 70
0
 10
0.0
 20
0.0
 30
0.0
  3
BLK9
  1

  0
LINE
  5
6DC
100
AcDbEntity
100
AcDbLine
  8
CADDY_1
 62
256
370
-1
  6
CONTINUOUS
 10
25.0
 20
280.0
 30
0.0
 11
23.0
 21
281.0
 31
0.0
  0
LINE
  5
6DD
100
AcDbEntity
100
AcDbLine
  8
CADDY_1
 62
256
370
-1
  6
CONTINUOUS
 10
25.0
 20
280.0
 30
0.0
 11
23.0
 21
279.0
 31
0.0
  0
LINE
  5
6DE
100
AcDbEntity
100
AcDbLine
  8
CADDY_1
 62
256
370
-1
  6
CONTINUOUS
 10
25.0
 20
280.0
 30
0.0
 11
30.0
 21
280.0
 31
0.0
  0
ENDBLK
  5
6DF
100
AcDbEntity
  8
0
100
AcDbBlockEnd
  0
BLOCK
  5
6E0
100
AcDbEntity
  8
0
100
AcDbBlockBegin
  2
BLK10
 70
0
 10
0.0
 20
0.0
 30
0.0
  3
BLK10
  1

  0
LINE
  5
6E1
100
AcDbEntity
100
AcDbLine
  8
CADDY_1
 62
256
370
-1
  6
CONTINUOUS
 10
25.0
 20
275.0
 30
0.0
 11
23.0
 21
276.0
 31
0.0
  0
LINE
  5
6E2
100
AcDbEntity
100
AcDbLine
  8
CADDY_1
 62
256
370
-1
  6
CONTINUOUS
 10
25.0
 20
275.0
 30
0.0
 11
23.0
 21
274.0
 31
0.0
  0
LINE
  5
6E3
100
AcDbEntity
100
AcDbLine
  8
CADDY_1
 62
256
370
-1
  6
CONTINUOUS
 10
25.0
 20
275.0
 30
0.0
 11
30.0
 21
275.0
 31
0.0
  0
ENDBLK
  5
6E4
100
AcDbEntity
  8
0
100
AcDbBlockEnd
  0
BLOCK
  5
6E5
100
AcDbEntity
  8
0
100
AcDbBlockBegin
  2
BLK11
 70
0
 10
0.0
 20
0.0
 30
0.0
  3
BLK11
  1

  0
LINE
  5
6E6
100
AcDbEntity
100
AcDbLine
  8
CADDY_1
 62
256
370
-1
  6
CONTINUOUS
 10
135.0
 20
216.0
 30
0.0
 11
135.0
 21
220.0
 31
0.0
  0
LINE
  5
6E7
100
AcDbEntity
100
AcDbLine
  8
CADDY_1
 62
256
370
-1
  6
CONTINUOUS
 10
140.0
 20
215.0
 30
0.0
 11
136.0
 21
215.0
 31
0.0
  0
LINE
  5
6E8
100
AcDbEntity
100
AcDbLine
  8
CADDY_1
 62
256
370
-1
  6
CONTINUOUS
 10
135.0
 20
210.0
 30
0.0
 11
135.0
 21
214.0
 31
0.0
  0
CIRCLE
  5
6E9
100
AcDbEntity
100
AcDbCircle
  8
CADDY_1
 62
256
370
-1
  6
CONTINUOUS
 10
135.0
 20
215.0
 30
0.0
 40
1.0
  0
ENDBLK
  5
6EA
100
AcDbEntity
  8
0
100
AcDbBlockEnd
  0
BLOCK
  5
6EB
100
AcDbEntity
  8
0
100
AcDbBlockBegin
  2
BLK12
 70
0
 10
0.0
 20
0.0
 30
0.0
  3
BLK12
  1

  0
LINE
  5
6EC
100
AcDbEntity
100
AcDbLine
  8
CADDY_1
 62
256
370
-1
  6
CONTINUOUS
 10
160.0
 20
215.0
 30
0.0
 11
156.0
 21
215.0
 31
0.0
  0
LINE
  5
6ED
100
AcDbEntity
100
AcDbLine
  8
CADDY_1
 62
256
370
-1
  6
CONTINUOUS
 10
155.0
 20
210.0
 30
0.0
 11
155.0
 21
214.0
 31
0.0
  0
CIRCLE
  5
6EE
100
AcDbEntity
100
AcDbCircle
  8
CADDY_1
 62
256
370
-1
  6
CONTINUOUS
 10
155.0
 20
215.0
 30
0.0
 40
1.0
  0
LINE
  5
6EF
100
AcDbEntity
100
AcDbLine
  8
CADDY_1
 62
256
370
-1
  6
CONTINUOUS
 10
150.0
 20
215.0
 30
0.0
 11
154.0
 21
215.0
 31
0.0
  0
ENDBLK
  5
6F0
100
AcDbEntity
  8
0
100
AcDbBlockEnd
  0
BLOCK
  5
6F1
100
AcDbEntity
  8
0
100
AcDbBlockBegin
  2
BLK13
 70
0
 10
0.0
 20
0.0
 30
0.0
  3
BLK13
  1

  0
LINE
  5
6F2
100
AcDbEntity
100
AcDbLine
  8
CADDY_1
 62
256
370
-1
  6
CONTINUOUS
 10
230.0
 20
215.0
 30
0.0
 11
226.0
 21
215.0
 31
0.0
  0
LINE
  5
6F3
100
AcDbEntity
100
AcDbLine
  8
CADDY_1
 62
256
370
-1
  6
CONTINUOUS
 10
225.0
 20
210.0
 30
0.0
 11
225.0
 21
214.0
 31
0.0
  0
CIRCLE
  5
6F4
100
AcDbEntity
100
AcDbCircle
  8
CADDY_1
 62
256
370
-1
  6
CONTINUOUS
 10
225.0
 20
215.0
 30
0.0
 40
1.0
  0
LINE
  5
6F5
100
AcDbEntity
100
AcDbLine
  8
CADDY_1
 62
256
370
-1
  6
CONTINUOUS
 10
220.0
 20
215.0
 30
0.0
 11
224.0
 21
215.0
 31
0.0
  0
ENDBLK
  5
6F6
100
AcDbEntity
  8
0
100
AcDbBlockEnd
  0
BLOCK
  5
6F7
100
AcDbEntity
  8
0
100
AcDbBlockBegin
  2
BLK14
 70
0
 10
0.0
 20
0.0
 30
0.0
  3
BLK14
  1

  0
LINE
  5
6F8
100
AcDbEntity
100
AcDbLine
  8
CADDY_1
 62
256
370
-1
  6
CONTINUOUS
 10
267.5
 20
215.0
 30
0.0
 11
265.25
 21
216.25
 31
0.0
  0
LINE
  5
6F9
100
AcDbEntity
100
AcDbLine
  8
CADDY_1
 62
256
370
-1
  6
CONTINUOUS
 10
267.5
 20
215.0
 30
0.0
 11
265.25
 21
213.75
 31
0.0
  0
LINE
  5
6FA
100
AcDbEntity
100
AcDbLine
  8
CADDY_1
 62
256
370
-1
  6
CONTINUOUS
 10
260.0
 20
215.0
 30
0.0
 11
267.5
 21
215.0
 31
0.0
  0
ENDBLK
  5
6FB
100
AcDbEntity
  8
0
100
AcDbBlockEnd
  0
ENDSEC
  0
SECTION
  2
ENTITIES
  0
INSERT
  5
6FC
100
AcDbEntity
100
AcDbBlockReference
  8
CADDY_1
 62
256
370
-1
  6
ByLayer
  2
BLK1
 10
0.0
 20
0.0
 30
0.0
  0
INSERT
  5
6FD
100
AcDbEntity
100
AcDbBlockReference
  8
CADDY_1
 62
256
370
-1
  6
ByLayer
  2
BLK2
 10
0.0
 20
0.0
 30
0.0
  0
INSERT
  5
6FE
100
AcDbEntity
100
AcDbBlockReference
  8
CADDY_1
 62
256
370
-1
  6
ByLayer
  2
BLK5
 10
0.0
 20
0.0
 30
0.0
  0
MTEXT
  5
6FF
100
AcDbEntity
100
AcDbMText
  8
CADDY_1
 62
256
370
-1
  6
ByLayer
 10
132.4999945089221001
 20
130.4800000041722967
 30
0.0
 40
1.680000014603138
 41
100.0
 71
8
 72
2
  1
1.1
  7
CADDY_VECTORFONT1P
 50
0.0
 73
0
 44
1.0
  0
MTEXT
  5
700
100
AcDbEntity
100
AcDbMText
  8
CADDY_1
 62
256
370
-1
  6
ByLayer
 10
152.5000018347055004
 20
130.4800000041722967
 30
0.0
 40
1.680000014603138
 41
100.0
 71
8
 72
2
  1
1.2
  7
CADDY_VECTORFONT1P
 50
0.0
 73
0
 44
1.0
  0
MTEXT
  5
701
100
AcDbEntity
100
AcDbMText
  8
CADDY_1
 62
256
370
-1
  6
ByLayer
 10
172.4999993927777098
 20
130.4800000041722967
 30
0.0
 40
1.680000014603138
 41
100.0
 71
8
 72
2
  1
1.3
  7
CADDY_VECTORFONT1P
 50
0.0
 73
0
 44
1.0
  0
MTEXT
  5
702
100
AcDbEntity
100
AcDbMText
  8
CADDY_1
 62
256
370
-1
  6
ByLayer
 10
192.5000018347055004
 20
130.4800000041722967
 30
0.0
 40
1.680000014603138
 41
100.0
 71
8
 72
2
  1
1.4
  7
CADDY_VECTORFONT1P
 50
0.0
 73
0
 44
1.0
  0
MTEXT
  5
703
100
AcDbEntity
100
AcDbMText
  8
CADDY_1
 62
256
370
-1
  6
ByLayer
 10
262.500014651566687
 20
130.4800000041722967
 30
0.0
 40
1.680000014603138
 41
100.0
 71
8
 72
2
  1
2.3
  7
CADDY_VECTORFONT1P
 50
0.0
 73
0
 44
1.0
  0
MTEXT
  5
704
100
AcDbEntity
100
AcDbMText
  8
CADDY_1
 62
256
370
-1
  6
ByLayer
 10
282.5000170934944776
 20
130.4800000041722967
 30
0.0
 40
1.680000014603138
 41
100.0
 71
8
 72
2
  1
2.4
  7
CADDY_VECTORFONT1P
 50
0.0
 73
0
 44
1.0
  0
MTEXT
  5
705
100
AcDbEntity
100
AcDbMText
  8
CADDY_1
 62
256
370
-1
  6
ByLayer
 10
222.5000021383166029
 20
130.4800000041722967
 30
0.0
 40
1.680000014603138
 41
100.0
 71
8
 72
2
  1
2.1
  7
CADDY_VECTORFONT1P
 50
0.0
 73
0
 44
1.0
  0
MTEXT
  5
706
100
AcDbEntity
100
AcDbMText
  8
CADDY_1
 62
256
370
-1
  6
ByLayer
 10
242.4999942053109123
 20
130.4800000041722967
 30
0.0
 40
1.680000014603138
 41
100.0
 71
8
 72
2
  1
2.2
  7
CADDY_VECTORFONT1P
 50
0.0
 73
0
 44
1.0
  0
MTEXT
  5
707
100
AcDbEntity
100
AcDbMText
  8
CADDY_1
 62
256
370
-1
  6
ByLayer
 10
124.3999877795577049
 20
113.2499938830733015
 30
0.0
 40
2.0999999530613418
 41
100.0
 71
9
 72
2
  1
25A1
  7
CADDY_VECTORFONT1P
 50
0.0
 73
0
 44
1.0
  0
LINE
  5
708
100
AcDbEntity
100
AcDbLine
  8
CADDY_1
 62
256
370
-1
  6
CONTINUOUS
 10
175.0
 20
155.0
 30
0.0
 11
265.0
 21
155.0
 31
0.0
  0
LINE
  5
709
100
AcDbEntity
100
AcDbLine
  8
CADDY_1
 62
256
370
-1
  6
CONTINUOUS
 10
175.0
 20
135.0
 30
0.0
 11
175.0
 21
155.0
 31
0.0
  0
LINE
  5
70A
100
AcDbEntity
100
AcDbLine
  8
CADDY_1
 62
256
370
-1
  6
CONTINUOUS
 10
265.0
 20
155.0
 30
0.0
 11
265.0
 21
135.0
 31
0.0
  0
INSERT
  5
70B
100
AcDbEntity
100
AcDbBlockReference
  8
CADDY_1
 62
256
370
-1
  6
ByLayer
  2
BLK6
 10
0.0
 20
0.0
 30
0.0
  0
MTEXT
  5
70C
100
AcDbEntity
100
AcDbMText
  8
CADDY_1
 62
256
370
-1
  6
ByLayer
 10
26.8499946594238317
 20
270.9500000029801754
 30
0.0
 40
2.4500000104308128
 41
100.0
 71
7
 72
2
  1
PE
  7
CADDY_VECTORFONT1P
 50
0.0
 73
0
 44
1.0
  0
LINE
  5
70D
100
AcDbEntity
100
AcDbLine
  8
CADDY_1
 62
256
370
-1
  6
CONTINUOUS
 10
30.0
 20
270.0
 30
0.0
 11
195.0
 21
270.0
 31
0.0
  0
INSERT
  5
70E
100
AcDbEntity
100
AcDbBlockReference
  8
CADDY_1
 62
256
370
-1
  6
ByLayer
  2
BLK7
 10
0.0
 20
0.0
 30
0.0
  0
MTEXT
  5
70F
100
AcDbEntity
100
AcDbMText
  8
CADDY_1
 62
256
370
-1
  6
ByLayer
 10
176.5400085449219034
 20
257.8499999865890118
 30
0.0
 40
2.0999999530613418
 41
100.0
 71
7
 72
2
  1
L-
  7
CADDY_VECTORFONT1P
 50
0.0
 73
0
 44
1.0
  0
LINE
  5
710
100
AcDbEntity
100
AcDbLine
  8
CADDY_1
 62
256
370
-1
  6
CONTINUOUS
 10
175.0
 20
155.0
 30
0.0
 11
175.0
 21
255.0
 31
0.0
  0
LINE
  5
711
100
AcDbEntity
100
AcDbLine
  8
CADDY_1
 62
256
370
-1
  6
CONTINUOUS
 10
175.0
 20
260.0
 30
0.0
 11
175.0
 21
275.0
 31
0.0
  0
INSERT
  5
712
100
AcDbEntity
100
AcDbBlockReference
  8
CADDY_1
 62
256
370
-1
  6
ByLayer
  2
BLK8
 10
0.0
 20
0.0
 30
0.0
  0
MTEXT
  5
713
100
AcDbEntity
100
AcDbMText
  8
CADDY_1
 62
256
370
-1
  6
ByLayer
 10
196.5400085449219034
 20
257.8499999865890118
 30
0.0
 40
2.0999999530613418
 41
100.0
 71
7
 72
2
  1
PE
  7
CADDY_VECTORFONT1P
 50
0.0
 73
0
 44
1.0
  0
LINE
  5
714
100
AcDbEntity
100
AcDbLine
  8
CADDY_1
 62
256
370
-1
  6
CONTINUOUS
 10
195.0
 20
135.0
 30
0.0
 11
195.0
 21
255.0
 31
0.0
  0
LINE
  5
715
100
AcDbEntity
100
AcDbLine
  8
CADDY_1
 62
256
370
-1
  6
CONTINUOUS
 10
195.0
 20
260.0
 30
0.0
 11
195.0
 21
270.0
 31
0.0
  0
INSERT
  5
716
100
AcDbEntity
100
AcDbBlockReference
  8
CADDY_1
 62
256
370
-1
  6
ByLayer
  2
BLK9
 10
0.0
 20
0.0
 30
0.0
  0
INSERT
  5
717
100
AcDbEntity
100
AcDbBlockReference
  8
CADDY_1
 62
256
370
-1
  6
ByLayer
  2
BLK10
 10
0.0
 20
0.0
 30
0.0
  0
MTEXT
  5
718
100
AcDbEntity
100
AcDbMText
  8
CADDY_1
 62
256
370
-1
  6
ByLayer
 10
26.8499946594238317
 20
275.9500000029801754
 30
0.0
 40
2.4500000104308128
 41
100.0
 71
7
 72
2
  1
L-
  7
CADDY_VECTORFONT1P
 50
0.0
 73
0
 44
1.0
  0
MTEXT
  5
719
100
AcDbEntity
100
AcDbMText
  8
CADDY_1
 62
1
370
-1
  6
ByLayer
 10
20.5499988608062303
 20
273.4500000029801754
 30
0.0
 40
2.4500000104308128
 41
100.0
 71
9
 72
2
  1
27.8
  7
CADDY_VECTORFONT1P
 50
0.0
 73
0
 44
1.0
  0
LINE
  5
71A
100
AcDbEntity
100
AcDbLine
  8
CADDY_1
 62
256
370
-1
  6
CONTINUOUS
 10
30.0
 20
280.0
 30
0.0
 11
135.0
 21
280.0
 31
0.0
  0
LINE
  5
71B
100
AcDbEntity
100
AcDbLine
  8
CADDY_1
 62
256
370
-1
  6
CONTINUOUS
 10
175.0
 20
275.0
 30
0.0
 11
30.0
 21
275.0
 31
0.0
  0
INSERT
  5
71C
100
AcDbEntity
100
AcDbBlockReference
  8
CADDY_1
 62
256
370
-1
  6
ByLayer
  2
BLK11
 10
0.0
 20
0.0
 30
0.0
  0
MTEXT
  5
71D
100
AcDbEntity
100
AcDbMText
  8
CADDY_1
 62
256
370
-1
  6
ByLayer
 10
132.3500121869147108
 20
213.7000060901046083
 30
0.0
 40
2.0999999530613418
 41
100.0
 71
9
 72
2
  1
X5
  7
CADDY_VECTORFONT1P
 50
0.0
 73
0
 44
1.0
  0
MTEXT
  5
71E
100
AcDbEntity
100
AcDbMText
  8
CADDY_1
 62
256
370
-1
  6
ByLayer
 10
136.8000030517578125
 20
215.9999938830733015
 30
0.0
 40
2.0999999530613418
 41
100.0
 71
7
 72
2
  1
2L+/1
  7
CADDY_VECTORFONT1P
 50
0.0
 73
0
 44
1.0
  0
LINE
  5
71F
100
AcDbEntity
100
AcDbLine
  8
CADDY_1
 62
256
370
-1
  6
CONTINUOUS
 10
135.0
 20
220.0
 30
0.0
 11
135.0
 21
280.0
 31
0.0
  0
LINE
  5
720
100
AcDbEntity
100
AcDbLine
  8
CADDY_1
 62
256
370
-1
  6
CONTINUOUS
 10
140.0
 20
215.0
 30
0.0
 11
150.0
 21
215.0
 31
0.0
  0
LINE
  5
721
100
AcDbEntity
100
AcDbLine
  8
CADDY_1
 62
256
370
-1
  6
CONTINUOUS
 10
135.0
 20
135.0
 30
0.0
 11
135.0
 21
210.0
 31
0.0
  0
INSERT
  5
722
100
AcDbEntity
100
AcDbBlockReference
  8
CADDY_1
 62
256
370
-1
  6
ByLayer
  2
BLK12
 10
0.0
 20
0.0
 30
0.0
  0
MTEXT
  5
723
100
AcDbEntity
100
AcDbMText
  8
CADDY_1
 62
256
370
-1
  6
ByLayer
 10
159.549996934831114
 20
215.9999938830733015
 30
0.0
 40
2.0999999530613418
 41
100.0
 71
9
 72
2
  1
2L+/1
  7
CADDY_VECTORFONT1P
 50
0.0
 73
0
 44
1.0
  0
INSERT
  5
724
100
AcDbEntity
100
AcDbBlockReference
  8
CADDY_1
 62
256
370
-1
  6
ByLayer
  2
BLK13
 10
0.0
 20
0.0
 30
0.0
  0
MTEXT
  5
725
100
AcDbEntity
100
AcDbMText
  8
CADDY_1
 62
256
370
-1
  6
ByLayer
 10
229.549996934831114
 20
215.9999938830733015
 30
0.0
 40
2.0999999530613418
 41
100.0
 71
9
 72
2
  1
2L+/1
  7
CADDY_VECTORFONT1P
 50
0.0
 73
0
 44
1.0
  0
LINE
  5
726
100
AcDbEntity
100
AcDbLine
  8
CADDY_1
 62
256
370
-1
  6
CONTINUOUS
 10
155.0
 20
135.0
 30
0.0
 11
155.0
 21
210.0
 31
0.0
  0
LINE
  5
727
100
AcDbEntity
100
AcDbLine
  8
CADDY_1
 62
256
370
-1
  6
CONTINUOUS
 10
225.0
 20
135.0
 30
0.0
 11
225.0
 21
210.0
 31
0.0
  0
LINE
  5
728
100
AcDbEntity
100
AcDbLine
  8
CADDY_1
 62
256
370
-1
  6
CONTINUOUS
 10
160.0
 20
215.0
 30
0.0
 11
220.0
 21
215.0
 31
0.0
  0
LINE
  5
729
100
AcDbEntity
100
AcDbLine
  8
CADDY_1
 62
256
370
-1
  6
CONTINUOUS
 10
230.0
 20
215.0
 30
0.0
 11
260.0
 21
215.0
 31
0.0
  0
INSERT
  5
72A
100
AcDbEntity
100
AcDbBlockReference
  8
CADDY_1
 62
256
370
-1
  6
ByLayer
  2
BLK14
 10
0.0
 20
0.0
 30
0.0
  0
MTEXT
  5
72B
100
AcDbEntity
100
AcDbMText
  8
CADDY_1
 62
1
370
-1
  6
ByLayer
 10
268.4000244140625
 20
213.8499938994646072
 30
0.0
 40
2.4500000104308128
 41
100.0
 71
7
 72
2
  1
7.3
  7
CADDY_VECTORFONT1P
 50
0.0
 73
0
 44
1.0
  0
CIRCLE
  5
72C
100
AcDbEntity
100
AcDbCircle
  8
CADDY_1
 62
256
370
-1
  6
ByLayer
 10
175.0
 20
155.0
 30
0.0
 40
1.0
  0
MTEXT
  5
72D
100
AcDbEntity
100
AcDbMText
  8
CADDY_1
 62
1
370
-1
  6
ByLayer
 10
20.5499988608062303
 20
268.4500000029801754
 30
0.0
 40
2.4500000000000002
 41
100.0
 71
9
 72
2
  1
12.8
  7
CADDY_VECTORFONT1P
 50
0.0
 73
0
 44
1.0
  0
MTEXT
  5
72E
100
AcDbEntity
100
AcDbMText
  8
CADDY_2
 62
256
370
-1
  6
ByLayer
 10
269.0
 20
219.0
 30
0.0
 40
2.5
 41
100.0
 71
4
 72
0
  1
2L+
  7
normallatin1
 50
0.0
 73
1
 44
1.0
  0
MTEXT
  5
72F
100
AcDbEntity
100
AcDbMText
  8
CADDY_1
 62
1
370
-1
  6
ByLayer
 10
20.5500007681548595
 20
278.4500000029801754
 30
0.0
 40
2.4500000000000002
 41
100.0
 71
9
 72
2
  1
26.8
  7
CADDY_VECTORFONT1P
 50
0.0
 73
0
 44
1.0
  0
MTEXT
  5
730
100
AcDbEntity
100
AcDbMText
  8
CADDY_1
 62
256
370
-1
  6
ByLayer
 10
26.8499946594238317
 20
280.9500000029801754
 30
0.0
 40
2.4500000000000002
 41
100.0
 71
7
 72
2
  1
2L+
  7
CADDY_VECTORFONT1P
 50
0.0
 73
0
 44
1.0
  0
ENDSEC
  0
SECTION
  2
OBJECTS
  0
DICTIONARY
  5
C
100
AcDbDictionary
280
0
281
1
  3
ACAD_GROUP
350
D
  3
ACAD_LAYOUT
350
1A
  3
ACAD_MLINESTYLE
350
17
  3
ACAD_PLOTSETTINGS
350
19
  3
ACAD_PLOTSTYLENAME
350
E
  3
AcDbVariableDictionary
350
731
  0
DICTIONARY
  5
D
100
AcDbDictionary
280
0
281
1
  0
ACDBDICTIONARYWDFLT
  5
E
100
AcDbDictionary
281
1
  3
Normal
350
F
100
AcDbDictionaryWithDefault
340
F
  0
ACDBPLACEHOLDER
  5
F
  0
DICTIONARY
  5
17
100
AcDbDictionary
280
0
281
1
  3
Standard
350
18
  0
MLINESTYLE
  5
18
100
AcDbMlineStyle
  2
STANDARD
 70
0
  3

 62
256
 51
90.0
 52
90.0
 71
2
 49
0.5
 62
256
  6
BYLAYER
 49
-0.5
 62
256
  6
BYLAYER
  0
DICTIONARY
  5
19
100
AcDbDictionary
280
0
281
1
  0
DICTIONARY
  5
1A
100
AcDbDictionary
281
1
  3
Layout1
350
1E
  3
Layout2
350
26
  3
Model
350
22
  0
LAYOUT
  5
1E
100
AcDbPlotSettings
  1

  2
C:\Program Files\AutoCAD 2002\plotters\DWF ePlot (optimized for plotting).pc3
  4

  6

 40
0.0
 41
0.0
 42
0.0
 43
0.0
 44
0.0
 45
0.0
 46
0.0
 47
0.0
 48
0.0
 49
0.0
140
0.0
141
0.0
142
1.0
143
1.0
 70
688
 72
0
 73
0
 74
5
  7

 75
16
147
1.0
148
0.0
149
0.0
100
AcDbLayout
  1
Layout1
 70
1
 71
1
 10
0.0
 20
0.0
 11
420.0
 21
297.0
 12
0.0
 22
0.0
 32
0.0
 14
100000000000000000000.0
 24
100000000000000000000.0
 34
100000000000000000000.0
 15
-100000000000000000000.0
 25
-100000000000000000000.0
 35
-100000000000000000000.0
146
0.0
 13
0.0
 23
0.0
 33
0.0
 16
1.0
 26
0.0
 36
0.0
 17
0.0
 27
1.0
 37
0.0
 76
0
330
1B
  0
LAYOUT
  5
22
100
AcDbPlotSettings
  1

  2
C:\Program Files\AutoCAD 2002\plotters\DWF ePlot (optimized for plotting).pc3
  4

  6

 40
0.0
 41
0.0
 42
0.0
 43
0.0
 44
0.0
 45
0.0
 46
0.0
 47
0.0
 48
0.0
 49
0.0
140
0.0
141
0.0
142
1.0
143
1.0
 70
1712
 72
0
 73
0
 74
0
  7

 75
0
147
1.0
148
0.0
149
0.0
100
AcDbLayout
  1
Model
 70
1
 71
0
 10
0.0
 20
0.0
 11
12.0
 21
9.0
 12
0.0
 22
0.0
 32
0.0
 14
0.0
 24
0.0
 34
0.0
 15
0.0
 25
0.0
 35
0.0
146
0.0
 13
0.0
 23
0.0
 33
0.0
 16
1.0
 26
0.0
 36
0.0
 17
0.0
 27
1.0
 37
0.0
 76
0
330
1F
  0
LAYOUT
  5
26
100
AcDbPlotSettings
  1

  2
C:\Program Files\AutoCAD 2002\plotters\DWF ePlot (optimized for plotting).pc3
  4

  6

 40
0.0
 41
0.0
 42
0.0
 43
0.0
 44
0.0
 45
0.0
 46
0.0
 47
0.0
 48
0.0
 49
0.0
140
0.0
141
0.0
142
1.0
143
1.0
 70
688
 72
0
 73
0
 74
5
  7

 75
16
147
1.0
148
0.0
149
0.0
100
AcDbLayout
  1
Layout2
 70
1
 71
2
 10
0.0
 20
0.0
 11
12.0
 21
9.0
 12
0.0
 22
0.0
 32
0.0
 14
0.0
 24
0.0
 34
0.0
 15
0.0
 25
0.0
 35
0.0
146
0.0
 13
0.0
 23
0.0
 33
0.0
 16
1.0
 26
0.0
 36
0.0
 17
0.0
 27
1.0
 37
0.0
 76
0
330
23
  0
DICTIONARY
  5
731
100
AcDbDictionary
281
1
  3
DIMASSOC
350
733
  3
HIDETEXT
350
732
  0
DICTIONARYVAR
  5
732
100
DictionaryVariables
280
0
  1
2
  0
DICTIONARYVAR
  5
733
100
DictionaryVariables
280
0
  1
1
  0
ENDSEC
  0
EOF
