999
dxflib 2.0.4.8
  0
SECTION
  2
HEADER
  9
$ACADVER
  1
AC1015
  9
$HANDSEED
  5
FFFF
  9
$USERR4
 40
0.0
  9
$DIMTDEC
 70
2
  9
$DIMTAD
 70
1
  9
$CMLSTYLE
  2
Standard
  9
$VISRETAIN
 70
1
  9
$TILEMODE
 70
1
  9
$SHADEDIF
 70
70
  9
$USERR5
 40
0.0
  9
$UCSYDIR
 10
0.0
 20
1.0
 30
0.0
  9
$CHAMFERA
 40
10.0
  9
$MENU
  1
.
  9
$DIMALTZ
 70
0
  9
$CLAYER
  8
0
  9
$DIMASZ
 40
2.5
  9
$GRIDUNIT
 10
0.0
 20
0.0
  9
$DIMADEC
 70
0
  9
$OLESTARTUP
290
0
  9
$UCSXDIR
 10
1.0
 20
0.0
 30
0.0
  9
$CHAMFERB
 40
10.0
  9
$DIMUPT
 70
0
  9
$TRACEWID
 40
1.0
  9
$REGENMODE
 70
1
  9
$ORTHOMODE
 70
0
  9
$EXTMIN
 10
0.0
 20
0.0
 30
0.0
  9
$DIMGAP
 40
0.625
  9
$ENDCAPS
280
0
  9
$MEASUREMENT
 70
1
  9
$CMLJUST
 70
0
  9
$PUCSYDIR
 10
0.0
 20
1.0
 30
0.0
  9
$ANGBASE
 50
0.0
  9
$USRTIMER
 70
1
  9
$CHAMFERC
 40
20.0
  9
$SKETCHINC
 40
1.0
  9
$DIMTFAC
 40
1.0
  9
$DIMSAH
 70
0
  9
$DIMALT
 70
0
  9
$DIMSHO
 70
1
  9
$VERSIONGUID
  2
{FAEB1C32-E019-11D5-929B-00C0DF256EC4}
  9
$LWDISPLAY
290
0
  9
$PUCSXDIR
 10
1.0
 20
0.0
 30
0.0
  9
$SURFTYPE
 70
6
  9
$SPLFRAME
 70
0
  9
$CHAMFERD
 40
0.0
  9
$DIMALTRND
 40
0.0
  9
$DIMALTTD
 70
3
  9
$DIMTSZ
 40
0.0
  9
$LIMMIN
 10
0.0
 20
0.0
  9
$SPLINESEGS
 70
8
  9
$AUPREC
 70
0
  9
$LUNITS
 70
2
  9
$CELWEIGHT
370
-1
  9
$SURFTAB1
 70
6
  9
$DWGCODEPAGE
  3
ANSI_1252
  9
$PSTYLEMODE
290
1
  9
$UNITMODE
 70
0
  9
$USERI1
 70
0
  9
$UCSORTHOVIEW
 70
0
  9
$SURFTAB2
 70
6
  9
$TDUUPDATE
 40
2451930.7708333330228925
  9
$TDUCREATE
 40
2451930.5416666669771075
  9
$SKPOLY
 70
0
  9
$ELEVATION
 40
0.0
  9
$DIMDSEP
 70
44
  9
$DIMCEN
 40
2.5
  9
$DIMRND
 40
0.0
  9
$INSBASE
 10
0.0
 20
0.0
 30
0.0
  9
$DIMEXO
 40
0.625
  9
$INSUNITS
 70
4
  9
$USERI2
 70
0
  9
$UCSORGRIGHT
 10
0.0
 20
0.0
 30
0.0
  9
$UCSORG
 10
0.0
 20
0.0
 30
0.0
  9
$PELEVATION
 40
0.0
  9
$TEXTSIZE
 40
2.5
  9
$FILLMODE
 70
1
  9
$EXTMAX
 10
400.0
 20
280.0
 30
0.0
  9
$JOINSTYLE
280
0
  9
$USERI3
 70
0
  9
$PUCSORGBOTTOM
 10
0.0
 20
0.0
 30
0.0
  9
$SURFU
 70
6
  9
$ANGDIR
 70
0
  9
$TDUSRTIMER
 40
0.0000000116
  9
$DIMLWD
 70
-2
  9
$DIMTZIN
 70
8
  9
$DIMTOLJ
 70
0
  9
$DIMZIN
 70
8
  9
$DIMDLE
 40
0.0
  9
$DIMSCALE
 40
1.0
  9
$DIMLUNIT
 70
2
  9
$WORLDVIEW
 70
1
  9
$USERI4
 70
0
  9
$SURFV
 70
6
  9
$DIMLWE
 70
-2
  9
$DIMATFIT
 70
3
  9
$DIMALTTZ
 70
0
  9
$DIMJUST
 70
0
  9
$QTEXTMODE
 70
0
  9
$LIMMAX
 10
420.0
 20
297.0
  9
$ACADMAINTVER
 70
6
  9
$DIMTXT
 40
2.5
  9
$GRIDMODE
 70
1
  9
$EXTNAMES
290
1
  9
$PROXYGRAPHICS
 70
1
  9
$USERI5
 70
0
  9
$UCSORGTOP
 10
0.0
 20
0.0
 30
0.0
  9
$PDMODE
 70
0
  9
$LIMCHECK
 70
0
  9
$THICKNESS
 40
0.0
  9
$DIMAZIN
 70
0
  9
$DIMSE1
 70
0
  9
$DIMLIM
 70
0
  9
$ATTMODE
 70
1
  9
$LUPREC
 70
4
  9
$XEDIT
290
1
  9
$PEXTMAX
 10
-100000000000000000000.0
 20
-100000000000000000000.0
 30
-100000000000000000000.0
  9
$PEXTMIN
 10
100000000000000000000.0
 20
100000000000000000000.0
 30
100000000000000000000.0
  9
$PUCSORG
 10
0.0
 20
0.0
 30
0.0
  9
$SPLINETYPE
 70
6
  9
$TDINDWG
 40
0.0000000116
  9
$DIMSOXD
 70
0
  9
$DIMLFAC
 40
1.0
  9
$DIMSE2
 70
0
  9
$DIMTOH
 70
0
  9
$CELTYPE
  6
ByLayer
  9
$PSVPSCALE
 40
0.6607142857142856
  9
$FINGERPRINTGUID
  2
{CF1C534B-F4FA-4A71-9179-B050CC6790CB}
  9
$PLIMCHECK
 70
0
  9
$PUCSORGRIGHT
 10
0.0
 20
0.0
 30
0.0
  9
$PLINEWID
 40
0.0
  9
$DIMFRAC
 70
0
  9
$DIMSTYLE
  2
ISO-25
  9
$DIMTVP
 40
0.0
  9
$DIMASO
 70
1
  9
$DIMTM
 40
0.0
  9
$DIMDLI
 40
3.75
  9
$DISPSILH
 70
0
  9
$CECOLOR
 62
256
  9
$PLIMMAX
 10
297.0
 20
210.0
  9
$PLIMMIN
 10
0.0
 20
0.0
  9
$TREEDEPTH
 70
3020
  9
$MAXACTVP
 70
64
  9
$UCSORGBACK
 10
0.0
 20
0.0
 30
0.0
  9
$UCSORGLEFT
 10
0.0
 20
0.0
 30
0.0
  9
$TDUPDATE
 40
2451930.8125
  9
$FILLETRAD
 40
10.0
  9
$DIMALTU
 70
2
  9
$DIMDEC
 70
2
  9
$DIMCLRT
 70
0
  9
$DIMALTD
 70
3
  9
$DIMTIH
 70
0
  9
$LTSCALE
 40
1.0
  9
$PINSBASE
 10
16.3571428571428896
 20
12.5
 30
0.0
  9
$DIMEXE
 40
1.25
  9
$CEPSNTYPE
380
0
  9
$CMLSCALE
 40
20.0
  9
$USERR1
 40
0.0
  9
$PUCSORTHOVIEW
 70
0
  9
$PDSIZE
 40
0.0
  9
$DIMTXSTY
  7
Standard
  9
$DIMCLRD
 70
0
  9
$CELTSCALE
 40
1.0
  9
$DIMAUNIT
 70
0
  9
$PSLTSCALE
 70
1
  9
$PLINEGEN
 70
0
  9
$SHADEDGE
 70
3
  9
$USERR2
 40
0.0
  9
$PUCSORGTOP
 10
0.0
 20
0.0
 30
0.0
  9
$UCSORGFRONT
 10
0.0
 20
0.0
 30
0.0
  9
$TDCREATE
 40
2451930.5833333330228925
  9
$DIMTMOVE
 70
0
  9
$DIMSD1
 70
0
  9
$DIMCLRE
 70
0
  9
$DIMTOFL
 70
1
  9
$DIMALTF
 40
0.03937007874016
  9
$DIMTOL
 70
0
  9
$DIMTP
 40
0.0
  9
$TEXTSTYLE
  7
Standard
  9
$AUNITS
 70
0
  9
$USERR3
 40
0.0
  9
$PUCSORGBACK
 10
0.0
 20
0.0
 30
0.0
  9
$PUCSORGFRONT
 10
0.0
 20
0.0
 30
0.0
  9
$PUCSORGLEFT
 10
0.0
 20
0.0
 30
0.0
  9
$UCSORGBOTTOM
 10
0.0
 20
0.0
 30
0.0
  9
$DIMSD2
 70
0
  9
$DIMTIX
 70
0
  9
$MIRRTEXT
 70
1
  0
ENDSEC
  0
SECTION
  2
TABLES
  0
TABLE
  2
VPORT
  5
8
100
AcDbSymbolTable
 70
1
  0
VPORT
  5
30
100
AcDbSymbolTableRecord
100
AcDbViewportTableRecord
  2
*Active
 70
0
 10
0.0
 20
0.0
 11
1.0
 21
1.0
 12
286.3055555555554861
 22
148.5
 13
0.0
 23
0.0
 14
10.0
 24
10.0
 15
10.0
 25
10.0
 16
0.0
 26
0.0
 36
1.0
 17
0.0
 27
0.0
 37
0.0
 40
297.0
 41
1.92798353909465
 42
50.0
 43
0.0
 44
0.0
 50
0.0
 51
0.0
 71
0
 72
100
 73
1
 74
3
 75
1
 76
1
 77
0
 78
0
281
0
 65
1
110
0.0
120
0.0
130
0.0
111
1.0
121
0.0
131
0.0
112
0.0
122
1.0
132
0.0
 79
0
146
0.0
  0
ENDTAB
  0
TABLE
  2
LTYPE
  5
5
100
AcDbSymbolTable
 70
21
  0
LTYPE
  5
14
100
AcDbSymbolTableRecord
100
AcDbLinetypeTableRecord
  2
ByBlock
 70
0
  3

 72
65
 73
0
 40
0.0
  0
LTYPE
  5
15
100
AcDbSymbolTableRecord
100
AcDbLinetypeTableRecord
  2
ByLayer
 70
0
  3

 72
65
 73
0
 40
0.0
  0
LTYPE
  5
16
100
AcDbSymbolTableRecord
100
AcDbLinetypeTableRecord
  2
CONTINUOUS
 70
0
  3
Solid line
 72
65
 73
0
 40
0.0
  0
LTYPE
  5
31
100
AcDbSymbolTableRecord
100
AcDbLinetypeTableRecord
  2
DOT
 70
0
  3
Dot . . . . . . . . . . . . . . . . . . . . . .
 72
65
 73
2
 40
6.3499999999999996
 49
0.0
 74
0
 49
-6.3499999999999996
 74
0
  0
LTYPE
  5
32
100
AcDbSymbolTableRecord
100
AcDbLinetypeTableRecord
  2
DOT2
 70
0
  3
Dot (.5x) .....................................
 72
65
 73
2
 40
3.1749999999999998
 49
0.0
 74
0
 49
-3.1749999999999998
 74
0
  0
LTYPE
  5
33
100
AcDbSymbolTableRecord
100
AcDbLinetypeTableRecord
  2
DOTX2
 70
0
  3
Dot (2x) .  .  .  .  .  .  .  .  .  .  .  .  .
 72
65
 73
2
 40
12.6999999999999993
 49
0.0
 74
0
 49
-12.6999999999999993
 74
0
  0
LTYPE
  5
34
100
AcDbSymbolTableRecord
100
AcDbLinetypeTableRecord
  2
DASHED
 70
0
  3
Dashed __ __ __ __ __ __ __ __ __ __ __ __ __ _
 72
65
 73
2
 40
19.0500000000000007
 49
12.6999999999999993
 74
0
 49
-6.3499999999999996
 74
0
  0
LTYPE
  5
35
100
AcDbSymbolTableRecord
100
AcDbLinetypeTableRecord
  2
DASHED2
 70
0
  3
Dashed (.5x) _ _ _ _ _ _ _ _ _ _ _ _ _ _ _ _ _
 72
65
 73
2
 40
9.5250000000000004
 49
6.3499999999999996
 74
0
 49
-3.1749999999999998
 74
0
  0
LTYPE
  5
36
100
AcDbSymbolTableRecord
100
AcDbLinetypeTableRecord
  2
DASHEDX2
 70
0
  3
Dashed (2x) ____  ____  ____  ____  ____  ___
 72
65
 73
2
 40
38.1000000000000014
 49
25.3999999999999986
 74
0
 49
-12.6999999999999993
 74
0
  0
LTYPE
  5
37
100
AcDbSymbolTableRecord
100
AcDbLinetypeTableRecord
  2
DASHDOT
 70
0
  3
Dash dot __ . __ . __ . __ . __ . __ . __ . __
 72
65
 73
4
 40
25.3999999999999986
 49
12.6999999999999993
 74
0
 49
-6.3499999999999996
 74
0
 49
0.0
 74
0
 49
-6.3499999999999996
 74
0
  0
LTYPE
  5
38
100
AcDbSymbolTableRecord
100
AcDbLinetypeTableRecord
  2
DASHDOT2
 70
0
  3
Dash dot (.5x) _._._._._._._._._._._._._._._.
 72
65
 73
4
 40
12.6999999999999993
 49
6.3499999999999996
 74
0
 49
-3.1749999999999998
 74
0
 49
0.0
 74
0
 49
-3.1749999999999998
 74
0
  0
LTYPE
  5
39
100
AcDbSymbolTableRecord
100
AcDbLinetypeTableRecord
  2
DASHDOTX2
 70
0
  3
Dash dot (2x) ____  .  ____  .  ____  .  ___
 72
65
 73
4
 40
50.7999999999999972
 49
25.3999999999999986
 74
0
 49
-12.6999999999999993
 74
0
 49
0.0
 74
0
 49
-12.6999999999999993
 74
0
  0
LTYPE
  5
3A
100
AcDbSymbolTableRecord
100
AcDbLinetypeTableRecord
  2
DIVIDE
 70
0
  3
Divide ____ . . ____ . . ____ . . ____ . . ____
 72
65
 73
6
 40
31.75
 49
12.6999999999999993
 74
0
 49
-6.3499999999999996
 74
0
 49
0.0
 74
0
 49
-6.3499999999999996
 74
0
 49
0.0
 74
0
 49
-6.3499999999999996
 74
0
  0
LTYPE
  5
3B
100
AcDbSymbolTableRecord
100
AcDbLinetypeTableRecord
  2
DIVIDE2
 70
0
  3
Divide (.5x) __..__..__..__..__..__..__..__.._
 72
65
 73
6
 40
15.875
 49
6.3499999999999996
 74
0
 49
-3.1749999999999998
 74
0
 49
0.0
 74
0
 49
-3.1749999999999998
 74
0
 49
0.0
 74
0
 49
-3.1749999999999998
 74
0
  0
LTYPE
  5
3C
100
AcDbSymbolTableRecord
100
AcDbLinetypeTableRecord
  2
DIVIDEX2
 70
0
  3
Divide (2x) ________  .  .  ________  .  .  _
 72
65
 73
6
 40
63.5
 49
25.3999999999999986
 74
0
 49
-12.6999999999999993
 74
0
 49
0.0
 74
0
 49
-12.6999999999999993
 74
0
 49
0.0
 74
0
 49
-12.6999999999999993
 74
0
  0
LTYPE
  5
3D
100
AcDbSymbolTableRecord
100
AcDbLinetypeTableRecord
  2
CENTER
 70
0
  3
Center ____ _ ____ _ ____ _ ____ _ ____ _ ____
 72
65
 73
4
 40
50.7999999999999972
 49
31.75
 74
0
 49
-6.3499999999999996
 74
0
 49
6.3499999999999996
 74
0
 49
-6.3499999999999996
 74
0
  0
LTYPE
  5
3E
100
AcDbSymbolTableRecord
100
AcDbLinetypeTableRecord
  2
CENTER2
 70
0
  3
Center (.5x) ___ _ ___ _ ___ _ ___ _ ___ _ ___
 72
65
 73
4
 40
28.5749999999999993
 49
19.0500000000000007
 74
0
 49
-3.1749999999999998
 74
0
 49
3.1749999999999998
 74
0
 49
-3.1749999999999998
 74
0
  0
LTYPE
  5
3F
100
AcDbSymbolTableRecord
100
AcDbLinetypeTableRecord
  2
CENTERX2
 70
0
  3
Center (2x) ________  __  ________  __  _____
 72
65
 73
4
 40
101.5999999999999943
 49
63.5
 74
0
 49
-12.6999999999999993
 74
0
 49
12.6999999999999993
 74
0
 49
-12.6999999999999993
 74
0
  0
LTYPE
  5
40
100
AcDbSymbolTableRecord
100
AcDbLinetypeTableRecord
  2
BORDER
 70
0
  3
Border __ __ . __ __ . __ __ . __ __ . __ __ .
 72
65
 73
6
 40
44.4500000000000028
 49
12.6999999999999993
 74
0
 49
-6.3499999999999996
 74
0
 49
12.6999999999999993
 74
0
 49
-6.3499999999999996
 74
0
 49
0.0
 74
0
 49
-6.3499999999999996
 74
0
  0
LTYPE
  5
41
100
AcDbSymbolTableRecord
100
AcDbLinetypeTableRecord
  2
BORDER2
 70
0
  3
Border (.5x) __.__.__.__.__.__.__.__.__.__.__.
 72
65
 73
6
 40
22.2250000000000014
 49
6.3499999999999996
 74
0
 49
-3.1749999999999998
 74
0
 49
6.3499999999999996
 74
0
 49
-3.1749999999999998
 74
0
 49
0.0
 74
0
 49
-3.1749999999999998
 74
0
  0
LTYPE
  5
42
100
AcDbSymbolTableRecord
100
AcDbLinetypeTableRecord
  2
BORDERX2
 70
0
  3
Border (2x) ____  ____  .  ____  ____  .  ___
 72
65
 73
6
 40
88.9000000000000057
 49
25.3999999999999986
 74
0
 49
-12.6999999999999993
 74
0
 49
25.3999999999999986
 74
0
 49
-12.6999999999999993
 74
0
 49
0.0
 74
0
 49
-12.6999999999999993
 74
0
  0
ENDTAB
  0
TABLE
  2
LAYER
  5
2
100
AcDbSymbolTable
 70
3
  0
LAYER
  5
10
100
AcDbSymbolTableRecord
100
AcDbLayerTableRecord
  2
0
 70
0
 62
7
  6
CONTINUOUS
370
-3
390
F
  0
LAYER
  5
43
100
AcDbSymbolTableRecord
100
AcDbLayerTableRecord
  2
Caddy_1
 70
0
 62
7
  6
CONTINUOUS
370
25
390
F
  0
LAYER
  5
44
100
AcDbSymbolTableRecord
100
AcDbLayerTableRecord
  2
FOREGROUND
 70
0
 62
7
  6
CONTINUOUS
370
25
390
F
  0
ENDTAB
  0
TABLE
  2
STYLE
  5
3
100
AcDbSymbolTable
 70
1
  0
STYLE
  5
11
100
AcDbSymbolTableRecord
100
AcDbTextStyleTableRecord
  2
Standard
 70
0
 40
0.0
 41
0.75
 50
0.0
 71
0
 42
2.5
  3
txt
  4

  0
ENDTAB
  0
TABLE
  2
VIEW
  5
6
100
AcDbSymbolTable
 70
0
  0
ENDTAB
  0
TABLE
  2
UCS
  5
7
100
AcDbSymbolTable
 70
0
  0
ENDTAB
  0
TABLE
  2
APPID
  5
9
100
AcDbSymbolTable
 70
1
  0
APPID
  5
12
100
AcDbSymbolTableRecord
100
AcDbRegAppTableRecord
  2
ACAD
 70
0
  0
ENDTAB
  0
TABLE
  2
DIMSTYLE
  5
A
100
AcDbSymbolTable
 70
1
100
AcDbDimStyleTable
 71
0
  0
DIMSTYLE
105
27
100
AcDbSymbolTableRecord
100
AcDbDimStyleTableRecord
  2
Standard
 41
2.5
 42
0.625
 43
3.75
 44
1.25
 70
0
 73
0
 74
0
 77
1
 78
8
140
2.5
141
2.5
143
0.03937007874016
147
0.625
171
3
172
1
271
2
272
2
274
3
278
44
283
0
284
8
340
11
  0
ENDTAB
  0
TABLE
  2
BLOCK_RECORD
  5
1
100
AcDbSymbolTable
 70
1
  0
BLOCK_RECORD
  5
1F
100
AcDbSymbolTableRecord
100
AcDbBlockTableRecord
  2
*Model_Space
340
22
  0
BLOCK_RECORD
  5
1B
100
AcDbSymbolTableRecord
100
AcDbBlockTableRecord
  2
*Paper_Space
340
1E
  0
BLOCK_RECORD
  5
23
100
AcDbSymbolTableRecord
100
AcDbBlockTableRecord
  2
*Paper_Space0
340
26
  0
BLOCK_RECORD
  5
45
100
AcDbSymbolTableRecord
100
AcDbBlockTableRecord
  2
Blk1
340
0
  0
BLOCK_RECORD
  5
46
100
AcDbSymbolTableRecord
100
AcDbBlockTableRecord
  2
Blk2
340
0
  0
BLOCK_RECORD
  5
47
100
AcDbSymbolTableRecord
100
AcDbBlockTableRecord
  2
Blk3
340
0
  0
BLOCK_RECORD
  5
48
100
AcDbSymbolTableRecord
100
AcDbBlockTableRecord
  2
Blk4
340
0
  0
ENDTAB
  0
ENDSEC
  0
SECTION
  2
BLOCKS
  0
BLOCK
  5
20
100
AcDbEntity
  8
0
100
AcDbBlockBegin
  2
*Model_Space
 70
0
 10
0.0
 20
0.0
 30
0.0
  3
*Model_Space
  1

  0
ENDBLK
  5
21
100
AcDbEntity
  8
0
100
AcDbBlockEnd
  0
BLOCK
  5
1C
100
AcDbEntity
 67
1
  8
0
100
AcDbBlockBegin
  2
*Paper_Space
 70
0
 10
0.0
 20
0.0
 30
0.0
  3
*Paper_Space
  1

  0
ENDBLK
  5
1D
100
AcDbEntity
 67
1
  8
0
100
AcDbBlockEnd
  0
BLOCK
  5
24
100
AcDbEntity
  8
0
100
AcDbBlockBegin
  2
*Paper_Space0
 70
0
 10
0.0
 20
0.0
 30
0.0
  3
*Paper_Space0
  1

  0
ENDBLK
  5
25
100
AcDbEntity
  8
0
100
AcDbBlockEnd
  0
BLOCK
  5
49
100
AcDbEntity
  8
0
100
AcDbBlockBegin
  2
Blk1
 70
0
 10
0.0
 20
0.0
 30
0.0
  3
Blk1
  1

  0
ENDBLK
  5
4A
100
AcDbEntity
  8
0
100
AcDbBlockEnd
  0
BLOCK
  5
4B
100
AcDbEntity
  8
0
100
AcDbBlockBegin
  2
Blk2
 70
0
 10
0.0
 20
0.0
 30
0.0
  3
Blk2
  1

  0
MTEXT
  5
4C
100
AcDbEntity
100
AcDbMText
  8
Caddy_1
 62
256
370
25
  6
ByLayer
 10
2.0799999535083771
 20
257.7199999690055847
 30
0.0
 40
2.519999891519547
 41
100.0
 71
7
 72
2
  1
A
  7
Caddy_Vectorfont1n
 50
0.0
 73
0
 44
1.0
  0
LINE
  5
4D
100
AcDbEntity
100
AcDbLine
  8
Caddy_1
 62
256
370
50
  6
CONTINUOUS
 10
395.0
 20
20.0
 30
0.0
 11
395.0
 21
275.0
 31
0.0
  0
LINE
  5
4E
100
AcDbEntity
100
AcDbLine
  8
Caddy_1
 62
256
370
50
  6
CONTINUOUS
 10
5.0
 20
20.0
 30
0.0
 11
5.0
 21
275.0
 31
0.0
  0
MTEXT
  5
4F
100
AcDbEntity
100
AcDbMText
  8
Caddy_1
 62
256
370
25
  6
ByLayer
 10
397.2599999457597733
 20
24.3866717219352687
 30
0.0
 40
2.519999891519547
 41
100.0
 71
7
 72
2
  1
F
  7
Caddy_Vectorfont1n
 50
0.0
 73
0
 44
1.0
  0
MTEXT
  5
50
100
AcDbEntity
100
AcDbMText
  8
Caddy_1
 62
256
370
25
  6
ByLayer
 10
397.2599999457597733
 20
71.0533434748649597
 30
0.0
 40
2.519999891519547
 41
100.0
 71
7
 72
2
  1
E
  7
Caddy_Vectorfont1n
 50
0.0
 73
0
 44
1.0
  0
MTEXT
  5
51
100
AcDbEntity
100
AcDbMText
  8
Caddy_1
 62
256
370
25
  6
ByLayer
 10
397.2599999457597733
 20
164.3866869807243063
 30
0.0
 40
2.519999891519547
 41
100.0
 71
7
 72
2
  1
C
  7
Caddy_Vectorfont1n
 50
0.0
 73
0
 44
1.0
  0
MTEXT
  5
52
100
AcDbEntity
100
AcDbMText
  8
Caddy_1
 62
256
370
25
  6
ByLayer
 10
397.1699999496340752
 20
211.0533129572868063
 30
0.0
 40
2.519999891519547
 41
100.0
 71
7
 72
2
  1
B
  7
Caddy_Vectorfont1n
 50
0.0
 73
0
 44
1.0
  0
MTEXT
  5
53
100
AcDbEntity
100
AcDbMText
  8
Caddy_1
 62
256
370
25
  6
ByLayer
 10
24.4399999380111694
 20
276.7199999690055847
 30
0.0
 40
2.519999891519547
 41
100.0
 71
7
 72
2
  1
1
  7
Caddy_Vectorfont1n
 50
0.0
 73
0
 44
1.0
  0
LINE
  5
54
100
AcDbEntity
100
AcDbLine
  8
Caddy_1
 62
256
370
25
  6
CONTINUOUS
 10
395.0
 20
233.3333129882811932
 30
0.0
 11
400.0
 21
233.3333129882811932
 31
0.0
  0
LINE
  5
55
100
AcDbEntity
100
AcDbLine
  8
Caddy_1
 62
256
370
25
  6
CONTINUOUS
 10
395.0
 20
186.6666870117188068
 30
0.0
 11
400.0
 21
186.6666870117188068
 31
0.0
  0
LINE
  5
56
100
AcDbEntity
100
AcDbLine
  8
Caddy_1
 62
256
370
25
  6
CONTINUOUS
 10
395.0
 20
140.0
 30
0.0
 11
400.0
 21
140.0
 31
0.0
  0
LINE
  5
57
100
AcDbEntity
100
AcDbLine
  8
Caddy_1
 62
256
370
25
  6
CONTINUOUS
 10
395.0
 20
93.333343505859375
 30
0.0
 11
400.0
 21
93.333343505859375
 31
0.0
  0
LINE
  5
58
100
AcDbEntity
100
AcDbLine
  8
Caddy_1
 62
256
370
25
  6
CONTINUOUS
 10
395.0
 20
46.6666717529296875
 30
0.0
 11
400.0
 21
46.6666717529296875
 31
0.0
  0
LINE
  5
59
100
AcDbEntity
100
AcDbLine
  8
Caddy_1
 62
256
370
25
  6
CONTINUOUS
 10
0.0
 20
46.6666717529296875
 30
0.0
 11
5.0
 21
46.6666717529296875
 31
0.0
  0
LINE
  5
5A
100
AcDbEntity
100
AcDbLine
  8
Caddy_1
 62
256
370
25
  6
CONTINUOUS
 10
0.0
 20
93.333343505859375
 30
0.0
 11
5.0
 21
93.333343505859375
 31
0.0
  0
LINE
  5
5B
100
AcDbEntity
100
AcDbLine
  8
Caddy_1
 62
256
370
25
  6
CONTINUOUS
 10
0.0
 20
140.0
 30
0.0
 11
5.0
 21
140.0
 31
0.0
  0
LINE
  5
5C
100
AcDbEntity
100
AcDbLine
  8
Caddy_1
 62
256
370
25
  6
CONTINUOUS
 10
0.0
 20
186.6666870117188068
 30
0.0
 11
5.0
 21
186.6666870117188068
 31
0.0
  0
LINE
  5
5D
100
AcDbEntity
100
AcDbLine
  8
Caddy_1
 62
256
370
25
  6
CONTINUOUS
 10
0.0
 20
233.3333129882811932
 30
0.0
 11
5.0
 21
233.3333129882811932
 31
0.0
  0
LINE
  5
5E
100
AcDbEntity
100
AcDbLine
  8
Caddy_1
 62
256
370
25
  6
CONTINUOUS
 10
50.0
 20
275.0
 30
0.0
 11
50.0
 21
280.0
 31
0.0
  0
LINE
  5
5F
100
AcDbEntity
100
AcDbLine
  8
Caddy_1
 62
256
370
25
  6
CONTINUOUS
 10
100.0
 20
275.0
 30
0.0
 11
100.0
 21
280.0
 31
0.0
  0
LINE
  5
60
100
AcDbEntity
100
AcDbLine
  8
Caddy_1
 62
256
370
25
  6
CONTINUOUS
 10
150.0
 20
275.0
 30
0.0
 11
150.0
 21
280.0
 31
0.0
  0
LINE
  5
61
100
AcDbEntity
100
AcDbLine
  8
Caddy_1
 62
256
370
25
  6
CONTINUOUS
 10
200.0
 20
275.0
 30
0.0
 11
200.0
 21
280.0
 31
0.0
  0
LINE
  5
62
100
AcDbEntity
100
AcDbLine
  8
Caddy_1
 62
256
370
25
  6
CONTINUOUS
 10
250.0
 20
275.0
 30
0.0
 11
250.0
 21
280.0
 31
0.0
  0
LINE
  5
63
100
AcDbEntity
100
AcDbLine
  8
Caddy_1
 62
256
370
25
  6
CONTINUOUS
 10
300.0
 20
275.0
 30
0.0
 11
300.0
 21
280.0
 31
0.0
  0
LINE
  5
64
100
AcDbEntity
100
AcDbLine
  8
Caddy_1
 62
256
370
25
  6
CONTINUOUS
 10
350.0
 20
275.0
 30
0.0
 11
350.0
 21
280.0
 31
0.0
  0
MTEXT
  5
65
100
AcDbEntity
100
AcDbMText
  8
Caddy_1
 62
256
370
25
  6
ByLayer
 10
74.1699999496340752
 20
276.7199999690055847
 30
0.0
 40
2.519999891519547
 41
100.0
 71
7
 72
2
  1
2
  7
Caddy_Vectorfont1n
 50
0.0
 73
0
 44
1.0
  0
MTEXT
  5
66
100
AcDbEntity
100
AcDbMText
  8
Caddy_1
 62
256
370
25
  6
ByLayer
 10
124.2599999457598017
 20
276.7199999690055847
 30
0.0
 40
2.519999891519547
 41
100.0
 71
7
 72
2
  1
3
  7
Caddy_Vectorfont1n
 50
0.0
 73
0
 44
1.0
  0
MTEXT
  5
67
100
AcDbEntity
100
AcDbMText
  8
Caddy_1
 62
256
370
25
  6
ByLayer
 10
174.0799999535084055
 20
276.7199999690055847
 30
0.0
 40
2.519999891519547
 41
100.0
 71
7
 72
2
  1
4
  7
Caddy_Vectorfont1n
 50
0.0
 73
0
 44
1.0
  0
MTEXT
  5
68
100
AcDbEntity
100
AcDbMText
  8
Caddy_1
 62
256
370
25
  6
ByLayer
 10
224.2599999457598017
 20
276.7199999690055847
 30
0.0
 40
2.519999891519547
 41
100.0
 71
7
 72
2
  1
5
  7
Caddy_Vectorfont1n
 50
0.0
 73
0
 44
1.0
  0
MTEXT
  5
69
100
AcDbEntity
100
AcDbMText
  8
Caddy_1
 62
256
370
25
  6
ByLayer
 10
274.1699999496340752
 20
276.7199999690055847
 30
0.0
 40
2.519999891519547
 41
100.0
 71
7
 72
2
  1
6
  7
Caddy_Vectorfont1n
 50
0.0
 73
0
 44
1.0
  0
MTEXT
  5
6A
100
AcDbEntity
100
AcDbMText
  8
Caddy_1
 62
256
370
25
  6
ByLayer
 10
324.1699999496340752
 20
276.7199999690055847
 30
0.0
 40
2.519999891519547
 41
100.0
 71
7
 72
2
  1
7
  7
Caddy_Vectorfont1n
 50
0.0
 73
0
 44
1.0
  0
MTEXT
  5
6B
100
AcDbEntity
100
AcDbMText
  8
Caddy_1
 62
256
370
25
  6
ByLayer
 10
374.1699999496340752
 20
276.7199999690055847
 30
0.0
 40
2.519999891519547
 41
100.0
 71
7
 72
2
  1
8
  7
Caddy_Vectorfont1n
 50
0.0
 73
0
 44
1.0
  0
MTEXT
  5
6C
100
AcDbEntity
100
AcDbMText
  8
Caddy_1
 62
256
370
25
  6
ByLayer
 10
2.1699999496340752
 20
211.0533129572868063
 30
0.0
 40
2.519999891519547
 41
100.0
 71
7
 72
2
  1
B
  7
Caddy_Vectorfont1n
 50
0.0
 73
0
 44
1.0
  0
MTEXT
  5
6D
100
AcDbEntity
100
AcDbMText
  8
Caddy_1
 62
256
370
25
  6
ByLayer
 10
2.2599999457597728
 20
164.3866869807243063
 30
0.0
 40
2.519999891519547
 41
100.0
 71
7
 72
2
  1
C
  7
Caddy_Vectorfont1n
 50
0.0
 73
0
 44
1.0
  0
MTEXT
  5
6E
100
AcDbEntity
100
AcDbMText
  8
Caddy_1
 62
256
370
25
  6
ByLayer
 10
2.1699999496340752
 20
117.7199999690055989
 30
0.0
 40
2.519999891519547
 41
100.0
 71
7
 72
2
  1
D
  7
Caddy_Vectorfont1n
 50
0.0
 73
0
 44
1.0
  0
MTEXT
  5
6F
100
AcDbEntity
100
AcDbMText
  8
Caddy_1
 62
256
370
25
  6
ByLayer
 10
2.2599999457597728
 20
71.0533434748649597
 30
0.0
 40
2.519999891519547
 41
100.0
 71
7
 72
2
  1
E
  7
Caddy_Vectorfont1n
 50
0.0
 73
0
 44
1.0
  0
MTEXT
  5
70
100
AcDbEntity
100
AcDbMText
  8
Caddy_1
 62
256
370
25
  6
ByLayer
 10
2.2599999457597728
 20
24.3866717219352687
 30
0.0
 40
2.519999891519547
 41
100.0
 71
7
 72
2
  1
F
  7
Caddy_Vectorfont1n
 50
0.0
 73
0
 44
1.0
  0
MTEXT
  5
71
100
AcDbEntity
100
AcDbMText
  8
Caddy_1
 62
256
370
25
  6
ByLayer
 10
397.1699999496340752
 20
117.7199999690055989
 30
0.0
 40
2.519999891519547
 41
100.0
 71
7
 72
2
  1
D
  7
Caddy_Vectorfont1n
 50
0.0
 73
0
 44
1.0
  0
MTEXT
  5
72
100
AcDbEntity
100
AcDbMText
  8
Caddy_1
 62
256
370
25
  6
ByLayer
 10
397.0799999535083771
 20
257.7199999690055847
 30
0.0
 40
2.519999891519547
 41
100.0
 71
7
 72
2
  1
A
  7
Caddy_Vectorfont1n
 50
0.0
 73
0
 44
1.0
  0
LINE
  5
73
100
AcDbEntity
100
AcDbLine
  8
Caddy_1
 62
256
370
50
  6
CONTINUOUS
 10
5.0
 20
275.0
 30
0.0
 11
395.0
 21
275.0
 31
0.0
  0
LINE
  5
74
100
AcDbEntity
100
AcDbLine
  8
Caddy_1
 62
256
370
25
  6
CONTINUOUS
 10
5.0
 20
10.0
 30
0.0
 11
117.0
 21
10.0
 31
0.0
  0
LINE
  5
75
100
AcDbEntity
100
AcDbLine
  8
Caddy_1
 62
256
370
25
  6
CONTINUOUS
 10
5.0
 20
15.0
 30
0.0
 11
117.0
 21
15.0
 31
0.0
  0
LINE
  5
76
100
AcDbEntity
100
AcDbLine
  8
Caddy_1
 62
256
370
25
  6
CONTINUOUS
 10
215.0
 20
0.0
 30
0.0
 11
215.0
 21
20.0
 31
0.0
  0
LINE
  5
77
100
AcDbEntity
100
AcDbLine
  8
Caddy_1
 62
256
370
25
  6
CONTINUOUS
 10
280.0
 20
0.0
 30
0.0
 11
280.0
 21
20.0
 31
0.0
  0
LINE
  5
78
100
AcDbEntity
100
AcDbLine
  8
Caddy_1
 62
256
370
50
  6
CONTINUOUS
 10
395.0
 20
20.0
 30
0.0
 11
5.0
 21
20.0
 31
0.0
  0
LINE
  5
79
100
AcDbEntity
100
AcDbLine
  8
Caddy_1
 62
256
370
25
  6
CONTINUOUS
 10
5.0
 20
0.0
 30
0.0
 11
0.0
 21
0.0
 31
0.0
  0
LINE
  5
7A
100
AcDbEntity
100
AcDbLine
  8
Caddy_1
 62
256
370
25
  6
CONTINUOUS
 10
280.0
 20
10.0
 30
0.0
 11
395.0
 21
10.0
 31
0.0
  0
LINE
  5
7B
100
AcDbEntity
100
AcDbLine
  8
Caddy_1
 62
256
370
25
  6
CONTINUOUS
 10
0.0
 20
276.0
 30
0.0
 11
4.0
 21
280.0
 31
0.0
  0
LINE
  5
7C
100
AcDbEntity
100
AcDbLine
  8
Caddy_1
 62
256
370
25
  6
CONTINUOUS
 10
397.0
 20
280.0
 30
0.0
 11
400.0
 21
277.0
 31
0.0
  0
LINE
  5
7D
100
AcDbEntity
100
AcDbLine
  8
Caddy_1
 62
256
370
25
  6
CONTINUOUS
 10
397.0
 20
0.0
 30
0.0
 11
400.0
 21
3.0
 31
0.0
  0
LINE
  5
7E
100
AcDbEntity
100
AcDbLine
  8
Caddy_1
 62
256
370
25
  6
CONTINUOUS
 10
0.0
 20
3.0
 30
0.0
 11
3.0
 21
0.0
 31
0.0
  0
MTEXT
  5
7F
100
AcDbEntity
100
AcDbMText
  8
Caddy_1
 62
256
370
25
  6
ByLayer
 10
6.5999999046325684
 20
1.5999999865889549
 30
0.0
 40
2.0999999530613418
 41
100.0
 71
7
 72
2
  1
Zustand
  7
Caddy_Vectorfont1p
 50
0.0
 73
0
 44
1.0
  0
MTEXT
  5
80
100
AcDbEntity
100
AcDbMText
  8
Caddy_1
 62
256
370
25
  6
ByLayer
 10
24.1000003814697301
 20
1.5999999865889549
 30
0.0
 40
2.0999999530613418
 41
100.0
 71
7
 72
2
  1
\U+00c4nderung
  7
Caddy_Vectorfont1p
 50
0.0
 73
0
 44
1.0
  0
MTEXT
  5
81
100
AcDbEntity
100
AcDbMText
  8
Caddy_1
 62
256
370
25
  6
ByLayer
 10
43.5999984741210866
 20
1.5999999865889549
 30
0.0
 40
2.0999999530613418
 41
100.0
 71
7
 72
2
  1
Datum
  7
Caddy_Vectorfont1p
 50
0.0
 73
0
 44
1.0
  0
MTEXT
  5
82
100
AcDbEntity
100
AcDbMText
  8
Caddy_1
 62
256
370
25
  6
ByLayer
 10
68.5999984741210938
 20
1.5999999865889549
 30
0.0
 40
2.0999999530613418
 41
100.0
 71
7
 72
2
  1
Name
  7
Caddy_Vectorfont1p
 50
0.0
 73
0
 44
1.0
  0
MTEXT
  5
83
100
AcDbEntity
100
AcDbMText
  8
Caddy_1
 62
256
370
25
  6
ByLayer
 10
79.5999984741210938
 20
1.5999999865889549
 30
0.0
 40
2.0999999530613418
 41
100.0
 71
7
 72
2
  1
Norm
  7
Caddy_Vectorfont1p
 50
0.0
 73
0
 44
1.0
  0
MTEXT
  5
84
100
AcDbEntity
100
AcDbMText
  8
Caddy_1
 62
256
370
25
  6
ByLayer
 10
79.5999984741210938
 20
16.5999999865889514
 30
0.0
 40
2.0999999530613418
 41
100.0
 71
7
 72
2
  1
Datum
  7
Caddy_Vectorfont1p
 50
0.0
 73
0
 44
1.0
  0
MTEXT
  5
85
100
AcDbEntity
100
AcDbMText
  8
Caddy_1
 62
256
370
25
  6
ByLayer
 10
79.5999984741210938
 20
11.5999999865889496
 30
0.0
 40
2.0999999530613418
 41
100.0
 71
7
 72
2
  1
Bearb.
  7
Caddy_Vectorfont1p
 50
0.0
 73
0
 44
1.0
  0
MTEXT
  5
86
100
AcDbEntity
100
AcDbMText
  8
Caddy_1
 62
256
370
25
  6
ByLayer
 10
79.5999984741210938
 20
6.5999999865889549
 30
0.0
 40
2.0999999530613418
 41
100.0
 71
7
 72
2
  1
Gepr.
  7
Caddy_Vectorfont1p
 50
0.0
 73
0
 44
1.0
  0
LINE
  5
87
100
AcDbEntity
100
AcDbLine
  8
Caddy_1
 62
256
370
25
  6
CONTINUOUS
 10
42.0
 20
20.0
 30
0.0
 11
42.0
 21
0.0
 31
0.0
  0
LINE
  5
88
100
AcDbEntity
100
AcDbLine
  8
Caddy_1
 62
256
370
25
  6
CONTINUOUS
 10
67.0
 20
20.0
 30
0.0
 11
67.0
 21
0.0
 31
0.0
  0
LINE
  5
89
100
AcDbEntity
100
AcDbLine
  8
Caddy_1
 62
256
370
25
  6
CONTINUOUS
 10
78.0
 20
20.0
 30
0.0
 11
78.0
 21
0.0
 31
0.0
  0
LINE
  5
8A
100
AcDbEntity
100
AcDbLine
  8
Caddy_1
 62
256
370
25
  6
CONTINUOUS
 10
5.0
 20
5.0
 30
0.0
 11
215.0
 21
5.0
 31
0.0
  0
LINE
  5
8B
100
AcDbEntity
100
AcDbLine
  8
Caddy_1
 62
256
370
25
  6
CONTINUOUS
 10
92.0
 20
20.0
 30
0.0
 11
92.0
 21
0.0
 31
0.0
  0
LINE
  5
8C
100
AcDbEntity
100
AcDbLine
  8
Caddy_1
 62
256
370
25
  6
CONTINUOUS
 10
187.0
 20
20.0
 30
0.0
 11
187.0
 21
0.0
 31
0.0
  0
LINE
  5
8D
100
AcDbEntity
100
AcDbLine
  8
Caddy_1
 62
256
370
25
  6
CONTINUOUS
 10
150.0
 20
5.0
 30
0.0
 11
150.0
 21
0.0
 31
0.0
  0
MTEXT
  5
8E
100
AcDbEntity
100
AcDbMText
  8
Caddy_1
 62
256
370
25
  6
ByLayer
 10
118.5999984741210938
 20
1.5999999865889549
 30
0.0
 40
2.0999999530613418
 41
100.0
 71
7
 72
2
  1
Urspr.
  7
Caddy_Vectorfont1p
 50
0.0
 73
0
 44
1.0
  0
MTEXT
  5
8F
100
AcDbEntity
100
AcDbMText
  8
Caddy_1
 62
256
370
25
  6
ByLayer
 10
151.6000061035155966
 20
1.5999999865889549
 30
0.0
 40
2.0999999530613418
 41
100.0
 71
7
 72
2
  1
Ers.f.
  7
Caddy_Vectorfont1p
 50
0.0
 73
0
 44
1.0
  0
MTEXT
  5
90
100
AcDbEntity
100
AcDbMText
  8
Caddy_1
 62
256
370
25
  6
ByLayer
 10
188.6000061035155966
 20
1.5999999865889549
 30
0.0
 40
2.0999999530613418
 41
100.0
 71
7
 72
2
  1
Ers.d.
  7
Caddy_Vectorfont1p
 50
0.0
 73
0
 44
1.0
  0
MTEXT
  5
91
100
AcDbEntity
100
AcDbMText
  8
Caddy_1
 62
256
370
25
  6
ByLayer
 10
281.600006103515625
 20
11.5999999865889496
 30
0.0
 40
2.0999999530613418
 41
100.0
 71
7
 72
2
  1
Inv.-Nr.:
  7
Caddy_Vectorfont1p
 50
0.0
 73
0
 44
1.0
  0
LINE
  5
92
100
AcDbEntity
100
AcDbLine
  8
Caddy_1
 62
256
370
25
  6
CONTINUOUS
 10
318.0
 20
10.0
 30
0.0
 11
318.0
 21
0.0
 31
0.0
  0
MTEXT
  5
93
100
AcDbEntity
100
AcDbMText
  8
Caddy_1
 62
256
370
25
  6
ByLayer
 10
319.600006103515625
 20
6.5999999865889549
 30
0.0
 40
2.0999999530613418
 41
100.0
 71
7
 72
2
  1
Plan\~Nr.:
  7
Caddy_Vectorfont1p
 50
0.0
 73
0
 44
1.0
  0
MTEXT
  5
94
100
AcDbEntity
100
AcDbMText
  8
Caddy_1
 62
256
370
25
  6
ByLayer
 10
373.600006103515625
 20
6.5999999865889549
 30
0.0
 40
2.0999999530613418
 41
100.0
 71
7
 72
2
  1
Bl.:
  7
Caddy_Vectorfont1p
 50
0.0
 73
0
 44
1.0
  0
MTEXT
  5
95
100
AcDbEntity
100
AcDbMText
  8
Caddy_1
 62
256
370
25
  6
ByLayer
 10
373.600006103515625
 20
1.5999999865889549
 30
0.0
 40
2.0999999530613418
 41
100.0
 71
7
 72
2
  1
von:
  7
Caddy_Vectorfont1p
 50
0.0
 73
0
 44
1.0
  0
LINE
  5
96
100
AcDbEntity
100
AcDbLine
  8
Caddy_1
 62
256
370
25
  6
CONTINUOUS
 10
374.0
 20
5.0
 30
0.0
 11
395.0
 21
5.0
 31
0.0
  0
MTEXT
  5
97
100
AcDbEntity
100
AcDbMText
  8
Caddy_1
 62
256
370
25
  6
ByLayer
 10
319.600006103515625
 20
1.5999999865889549
 30
0.0
 40
2.0999999530613418
 41
100.0
 71
7
 72
2
  1
Kunde:
  7
Caddy_Vectorfont1p
 50
0.0
 73
0
 44
1.0
  0
LINE
  5
98
100
AcDbEntity
100
AcDbLine
  8
Caddy_1
 62
256
370
25
  6
CONTINUOUS
 10
353.0
 20
20.0
 30
0.0
 11
353.0
 21
10.0
 31
0.0
  0
LINE
  5
99
100
AcDbEntity
100
AcDbLine
  8
Caddy_1
 62
256
370
25
  6
CONTINUOUS
 10
353.0
 20
15.0
 30
0.0
 11
395.0
 21
15.0
 31
0.0
  0
MTEXT
  5
9A
100
AcDbEntity
100
AcDbMText
  8
Caddy_1
 62
256
370
25
  6
ByLayer
 10
354.600006103515625
 20
16.5999999865889514
 30
0.0
 40
2.0999999530613418
 41
100.0
 71
7
 72
2
  1
Anl.:
  7
Caddy_Vectorfont1p
 50
0.0
 73
0
 44
1.0
  0
MTEXT
  5
9B
100
AcDbEntity
100
AcDbMText
  8
Caddy_1
 62
256
370
25
  6
ByLayer
 10
354.600006103515625
 20
11.5999999865889496
 30
0.0
 40
2.0999999530613418
 41
100.0
 71
7
 72
2
  1
Ort:
  7
Caddy_Vectorfont1p
 50
0.0
 73
0
 44
1.0
  0
LINE
  5
9C
100
AcDbEntity
100
AcDbLine
  8
Caddy_1
 62
256
370
25
  6
CONTINUOUS
 10
187.0
 20
20.0
 30
0.0
 11
187.0
 21
5.0
 31
0.0
  0
LINE
  5
9D
100
AcDbEntity
100
AcDbLine
  8
Caddy_1
 62
256
370
25
  6
CONTINUOUS
 10
215.0
 20
14.0
 30
0.0
 11
215.0
 21
2.0
 31
0.0
  0
LINE
  5
9E
100
AcDbEntity
100
AcDbLine
  8
Caddy_1
 62
256
370
25
  6
CONTINUOUS
 10
117.0
 20
20.0
 30
0.0
 11
117.0
 21
0.0
 31
0.0
  0
LINE
  5
9F
100
AcDbEntity
100
AcDbLine
  8
Caddy_1
 62
256
370
25
  6
CONTINUOUS
 10
372.0
 20
10.0
 30
0.0
 11
372.0
 21
0.0
 31
0.0
  0
LINE
  5
A0
100
AcDbEntity
100
AcDbLine
  8
Caddy_1
 62
256
370
25
  6
CONTINUOUS
 10
372.0
 20
5.0
 30
0.0
 11
375.0
 21
5.0
 31
0.0
  0
LINE
  5
A1
100
AcDbEntity
100
AcDbLine
  8
Caddy_1
 62
256
370
25
  6
CONTINUOUS
 10
22.5
 20
20.0
 30
0.0
 11
22.5
 21
0.0
 31
0.0
  0
MTEXT
  5
A2
100
AcDbEntity
100
AcDbMText
  8
Caddy_1
 62
256
370
25
  6
ByLayer
 10
103.9999984623864009
 20
11.5999999865889496
 30
0.0
 40
2.0999999530613418
 41
100.0
 71
8
 72
2
  1
MK
  7
Caddy_Vectorfont1p
 50
0.0
 73
0
 44
1.0
  0
MTEXT
  5
A3
100
AcDbEntity
100
AcDbMText
  8
Caddy_1
 62
256
370
25
  6
ByLayer
 10
296.600006103515625
 20
11.5999999865889496
 30
0.0
 40
2.0999999530613418
 41
100.0
 71
7
 72
2
  1

  7
Caddy_Vectorfont1p
 50
0.0
 73
0
 44
1.0
  0
MTEXT
  5
A4
100
AcDbEntity
100
AcDbMText
  8
Caddy_1
 62
256
370
25
  6
ByLayer
 10
335.100006103515625
 20
1.5999999865889549
 30
0.0
 40
2.0999999530613418
 41
100.0
 71
7
 72
2
  1
Uni\~W\U+00fcrzburg
  7
Caddy_Vectorfont1p
 50
0.0
 73
0
 44
1.0
  0
MTEXT
  5
A5
100
AcDbEntity
100
AcDbMText
  8
Caddy_1
 62
256
370
25
  6
ByLayer
 10
152.0000015124678896
 20
13.2999999821186101
 30
0.0
 40
2.799999937415123
 41
100.0
 71
8
 72
2
  1
Magic-Telescope
  7
Caddy_Vectorfont1p
 50
0.0
 73
0
 44
1.0
  0
MTEXT
  5
A6
100
AcDbEntity
100
AcDbMText
  8
Caddy_1
 62
256
370
25
  6
ByLayer
 10
151.9999981671572016
 20
8.2999999821186066
 30
0.0
 40
2.799999937415123
 41
100.0
 71
8
 72
2
  1

  7
Caddy_Vectorfont1p
 50
0.0
 73
0
 44
1.0
  0
LINE
  5
A7
100
AcDbEntity
100
AcDbLine
  8
Caddy_1
 62
256
370
20
  6
CONTINUOUS
 10
5.0
 20
20.0
 30
0.0
 11
5.0
 21
0.0
 31
0.0
  0
LINE
  5
A8
100
AcDbEntity
100
AcDbLine
  8
Caddy_1
 62
256
370
20
  6
CONTINUOUS
 10
395.0
 20
0.0
 30
0.0
 11
395.0
 21
20.0
 31
0.0
  0
LINE
  5
A9
100
AcDbEntity
100
AcDbLine
  8
Caddy_1
 62
256
370
20
  6
CONTINUOUS
 10
0.0
 20
0.0
 30
0.0
 11
400.0
 21
0.0
 31
0.0
  0
LINE
  5
AA
100
AcDbEntity
100
AcDbLine
  8
Caddy_1
 62
256
370
20
  6
CONTINUOUS
 10
400.0
 20
0.0
 30
0.0
 11
400.0
 21
280.0
 31
0.0
  0
LINE
  5
AB
100
AcDbEntity
100
AcDbLine
  8
Caddy_1
 62
256
370
20
  6
CONTINUOUS
 10
400.0
 20
280.0
 30
0.0
 11
0.0
 21
280.0
 31
0.0
  0
LINE
  5
AC
100
AcDbEntity
100
AcDbLine
  8
Caddy_1
 62
256
370
20
  6
CONTINUOUS
 10
0.0
 20
280.0
 30
0.0
 11
0.0
 21
0.0
 31
0.0
  0
MTEXT
  5
AD
100
AcDbEntity
100
AcDbMText
  8
Caddy_1
 62
256
370
25
  6
ByLayer
 10
244.9999969415366934
 20
13.0999999865889496
 30
0.0
 40
2.0999999530613418
 41
100.0
 71
8
 72
2
  1
Reserveblatt
  7
Caddy_Vectorfont1p
 50
0.0
 73
0
 44
1.0
  0
MTEXT
  5
AE
100
AcDbEntity
100
AcDbMText
  8
Caddy_1
 62
256
370
25
  6
ByLayer
 10
104.0000060917810032
 20
6.5999999865889549
 30
0.0
 40
2.0999999530613418
 41
100.0
 71
8
 72
2
  1
19.09.2006
  7
Caddy_Vectorfont1p
 50
0.0
 73
0
 44
1.0
  0
MTEXT
  5
AF
100
AcDbEntity
100
AcDbMText
  8
Caddy_1
 62
256
370
25
  6
ByLayer
 10
382.600006103515625
 20
6.5999999865889549
 30
0.0
 40
2.0999999530613418
 41
100.0
 71
7
 72
2
  1
19
  7
Caddy_Vectorfont1p
 50
0.0
 73
0
 44
1.0
  0
MTEXT
  5
B0
100
AcDbEntity
100
AcDbMText
  8
Caddy_1
 62
256
370
25
  6
ByLayer
 10
382.600006103515625
 20
1.5999999865889549
 30
0.0
 40
2.0999999530613418
 41
100.0
 71
7
 72
2
  1
29
  7
Caddy_Vectorfont1p
 50
0.0
 73
0
 44
1.0
  0
MTEXT
  5
B1
100
AcDbEntity
100
AcDbMText
  8
Caddy_1
 62
256
370
25
  6
ByLayer
 10
245.0000024400650886
 20
5.5999999865889549
 30
0.0
 40
2.0999999530613418
 41
100.0
 71
8
 72
2
  1

  7
Caddy_Vectorfont1p
 50
0.0
 73
0
 44
1.0
  0
MTEXT
  5
B2
100
AcDbEntity
100
AcDbMText
  8
Caddy_1
 62
256
370
25
  6
ByLayer
 10
103.9999984623864009
 20
16.5999999865889514
 30
0.0
 40
2.0999999530613418
 41
100.0
 71
8
 72
2
  1
13.05.2002
  7
Caddy_Vectorfont1p
 50
0.0
 73
0
 44
1.0
  0
MTEXT
  5
B3
100
AcDbEntity
100
AcDbMText
  8
Caddy_1
 62
256
370
25
  6
ByLayer
 10
281.600006103515625
 20
6.5999999865889549
 30
0.0
 40
2.0999999530613418
 41
100.0
 71
7
 72
2
  1
Projekt:
  7
Caddy_Vectorfont1p
 50
0.0
 73
0
 44
1.0
  0
MTEXT
  5
B4
100
AcDbEntity
100
AcDbMText
  8
Caddy_1
 62
256
370
25
  6
ByLayer
 10
282.100006103515625
 20
1.5999999865889549
 30
0.0
 40
2.0999999530613418
 41
100.0
 71
7
 72
2
  1
Schaltplan\~Magic\~Telescope\~in\~Caddy++
  7
Caddy_Vectorfont1p
 50
0.0
 73
0
 44
1.0
  0
MTEXT
  5
B5
100
AcDbEntity
100
AcDbMText
  8
Caddy_1
 62
256
370
25
  6
ByLayer
 10
335.100006103515625
 20
6.5999999865889549
 30
0.0
 40
2.0999999530613418
 41
100.0
 71
7
 72
2
  1
5530
  7
Caddy_Vectorfont1p
 50
0.0
 73
0
 44
1.0
  0
MTEXT
  5
B6
100
AcDbEntity
100
AcDbMText
  8
Caddy_1
 62
256
370
25
  6
ByLayer
 10
10.6999998092651403
 20
23.2000000029802287
 30
0.0
 40
2.4500000104308128
 41
100.0
 71
7
 72
2
  1
18
  7
Caddy_Vectorfont1p
 50
0.0
 73
0
 44
1.0
  0
MTEXT
  5
B7
100
AcDbEntity
100
AcDbMText
  8
Caddy_1
 62
256
370
25
  6
ByLayer
 10
389.3000122122467133
 20
23.2000000029802287
 30
0.0
 40
2.4500000104308128
 41
100.0
 71
9
 72
2
  1
20
  7
Caddy_Vectorfont1p
 50
0.0
 73
0
 44
1.0
  0
MTEXT
  5
B8
100
AcDbEntity
100
AcDbMText
  8
Caddy_1
 62
256
370
25
  6
ByLayer
 10
386.350006103515625
 20
6.5999999865889549
 30
0.0
 40
2.0999999530613418
 41
100.0
 71
7
 72
2
  1

  7
Caddy_Vectorfont1p
 50
0.0
 73
0
 44
1.0
  0
MTEXT
  5
B9
100
AcDbEntity
100
AcDbMText
  8
Caddy_1
 62
256
370
25
  6
ByLayer
 10
281.600006103515625
 20
16.5999999865889514
 30
0.0
 40
2.0999999530613418
 41
100.0
 71
7
 72
2
  1

  7
Caddy_Vectorfont1p
 50
0.0
 73
0
 44
1.0
  0
MTEXT
  5
BA
100
AcDbEntity
100
AcDbMText
  8
Caddy_1
 62
256
370
25
  6
ByLayer
 10
367.600006103515625
 20
16.5999999865889514
 30
0.0
 40
2.0999999530613418
 41
100.0
 71
7
 72
2
  1
=
  7
Caddy_Vectorfont1p
 50
0.0
 73
0
 44
1.0
  0
MTEXT
  5
BB
100
AcDbEntity
100
AcDbMText
  8
Caddy_1
 62
256
370
25
  6
ByLayer
 10
367.600006103515625
 20
11.5999999865889496
 30
0.0
 40
2.0999999530613418
 41
100.0
 71
7
 72
2
  1
+
  7
Caddy_Vectorfont1p
 50
0.0
 73
0
 44
1.0
  0
INSERT
  5
BC
100
AcDbEntity
100
AcDbBlockReference
  8
Caddy_1
 62
256
370
-1
  6
ByLayer
  2
Blk3
 10
0.0
 20
0.0
 30
0.0
  0
MTEXT
  5
BD
100
AcDbEntity
100
AcDbMText
  8
Caddy_1
 62
256
370
25
  6
ByLayer
 10
23.3500003814697301
 20
16.5999999865889514
 30
0.0
 40
2.0999999530613418
 41
100.0
 71
7
 72
2
  1
Konstruktion:
  7
Caddy_Vectorfont1p
 50
0.0
 73
0
 44
1.0
  0
MTEXT
  5
BE
100
AcDbEntity
100
AcDbMText
  8
Caddy_1
 62
256
370
25
  6
ByLayer
 10
53.9999965550377965
 20
16.5999999865889514
 30
0.0
 40
2.0999999530613418
 41
100.0
 71
8
 72
2
  1
MK
  7
Caddy_Vectorfont1p
 50
0.0
 73
0
 44
1.0
  0
ENDBLK
  5
BF
100
AcDbEntity
  8
0
100
AcDbBlockEnd
  0
BLOCK
  5
C0
100
AcDbEntity
  8
0
100
AcDbBlockBegin
  2
Blk3
 70
0
 10
0.0
 20
0.0
 30
0.0
  3
Blk3
  1

  0
INSERT
  5
C1
100
AcDbEntity
100
AcDbBlockReference
  8
Caddy_1
 62
256
370
-1
  6
ByLayer
  2
Blk4
 10
0.0
 20
0.0
 30
0.0
  0
LINE
  5
C2
100
AcDbEntity
100
AcDbLine
  8
FOREGROUND
 62
8
370
9
  6
CONTINUOUS
 10
189.6648864746094034
 20
7.5
 30
0.0
 11
195.5851135253905966
 21
7.5
 31
0.0
  0
LINE
  5
C3
100
AcDbEntity
100
AcDbLine
  8
FOREGROUND
 62
8
370
9
  6
CONTINUOUS
 10
189.6648864746094034
 20
7.5947532653808594
 30
0.0
 11
195.8670349121094034
 21
7.5947532653808594
 31
0.0
  0
LINE
  5
C4
100
AcDbEntity
100
AcDbLine
  8
FOREGROUND
 62
8
370
9
  6
CONTINUOUS
 10
189.5944213867188068
 20
7.6895179748535156
 30
0.0
 11
196.1489410400390909
 21
7.6895179748535156
 31
0.0
  0
LINE
  5
C5
100
AcDbEntity
100
AcDbLine
  8
FOREGROUND
 62
8
370
9
  6
CONTINUOUS
 10
189.3125
 20
7.784271240234375
 30
0.0
 11
189.3125
 21
7.784271240234375
 31
0.0
  0
LINE
  5
C6
100
AcDbEntity
100
AcDbLine
  8
FOREGROUND
 62
8
370
9
  6
CONTINUOUS
 10
194.9508056640625
 20
7.784271240234375
 30
0.0
 11
196.5013427734375
 21
7.784271240234375
 31
0.0
  0
LINE
  5
C7
100
AcDbEntity
100
AcDbLine
  8
FOREGROUND
 62
8
370
9
  6
CONTINUOUS
 10
189.3125
 20
7.8790359497070312
 30
0.0
 11
189.3125
 21
7.8790359497070312
 31
0.0
  0
LINE
  5
C8
100
AcDbEntity
100
AcDbLine
  8
FOREGROUND
 62
8
370
9
  6
CONTINUOUS
 10
195.2327270507811932
 20
7.8790359497070312
 30
0.0
 11
196.6423034667969034
 21
7.8790359497070312
 31
0.0
  0
LINE
  5
C9
100
AcDbEntity
100
AcDbLine
  8
FOREGROUND
 62
8
370
9
  6
CONTINUOUS
 10
189.3125
 20
7.9737892150878906
 30
0.0
 11
189.3125
 21
7.9737892150878906
 31
0.0
  0
LINE
  5
CA
100
AcDbEntity
100
AcDbLine
  8
FOREGROUND
 62
8
370
9
  6
CONTINUOUS
 10
195.8670349121094034
 20
7.9737892150878906
 30
0.0
 11
196.8537292480469034
 21
7.9737892150878906
 31
0.0
  0
LINE
  5
CB
100
AcDbEntity
100
AcDbLine
  8
FOREGROUND
 62
8
370
9
  6
CONTINUOUS
 10
189.3125
 20
8.0685482025146484
 30
0.0
 11
189.3125
 21
8.0685482025146484
 31
0.0
  0
LINE
  5
CC
100
AcDbEntity
100
AcDbLine
  8
FOREGROUND
 62
8
370
9
  6
CONTINUOUS
 10
195.9375152587890909
 20
8.0685482025146484
 30
0.0
 11
196.9242095947265909
 21
8.0685482025146484
 31
0.0
  0
LINE
  5
CD
100
AcDbEntity
100
AcDbLine
  8
FOREGROUND
 62
8
370
9
  6
CONTINUOUS
 10
189.3125
 20
8.1633071899414062
 30
0.0
 11
189.3125
 21
8.1633071899414062
 31
0.0
  0
LINE
  5
CE
100
AcDbEntity
100
AcDbLine
  8
FOREGROUND
 62
8
370
9
  6
CONTINUOUS
 10
196.2194213867188068
 20
8.1633071899414062
 30
0.0
 11
197.1356506347655966
 21
8.1633071899414062
 31
0.0
  0
LINE
  5
CF
100
AcDbEntity
100
AcDbLine
  8
FOREGROUND
 62
8
370
9
  6
CONTINUOUS
 10
189.3125
 20
8.2580642700195312
 30
0.0
 11
189.3125
 21
8.2580642700195312
 31
0.0
  0
LINE
  5
D0
100
AcDbEntity
100
AcDbLine
  8
FOREGROUND
 62
8
370
9
  6
CONTINUOUS
 10
196.2899017333984091
 20
8.2580642700195312
 30
0.0
 11
197.1356506347655966
 21
8.2580642700195312
 31
0.0
  0
LINE
  5
D1
100
AcDbEntity
100
AcDbLine
  8
FOREGROUND
 62
8
370
9
  6
CONTINUOUS
 10
189.3125
 20
8.3528213500976562
 30
0.0
 11
189.3125
 21
8.3528213500976562
 31
0.0
  0
LINE
  5
D2
100
AcDbEntity
100
AcDbLine
  8
FOREGROUND
 62
8
370
9
  6
CONTINUOUS
 10
196.5013427734375
 20
8.3528213500976562
 30
0.0
 11
197.276611328125
 21
8.3528213500976562
 31
0.0
  0
LINE
  5
D3
100
AcDbEntity
100
AcDbLine
  8
FOREGROUND
 62
8
370
9
  6
CONTINUOUS
 10
189.3125
 20
8.4475784301757812
 30
0.0
 11
189.3125
 21
8.4475784301757812
 31
0.0
  0
LINE
  5
D4
100
AcDbEntity
100
AcDbLine
  8
FOREGROUND
 62
8
370
9
  6
CONTINUOUS
 10
196.6423034667969034
 20
8.4475784301757812
 30
0.0
 11
197.4175567626953125
 21
8.4475784301757812
 31
0.0
  0
LINE
  5
D5
100
AcDbEntity
100
AcDbLine
  8
FOREGROUND
 62
8
370
9
  6
CONTINUOUS
 10
189.3125
 20
8.5423393249511719
 30
0.0
 11
189.3125
 21
8.5423393249511719
 31
0.0
  0
LINE
  5
D6
100
AcDbEntity
100
AcDbLine
  8
FOREGROUND
 62
8
370
9
  6
CONTINUOUS
 10
196.7127685546875
 20
8.5423393249511719
 30
0.0
 11
197.4175567626953125
 21
8.5423393249511719
 31
0.0
  0
LINE
  5
D7
100
AcDbEntity
100
AcDbLine
  8
FOREGROUND
 62
8
370
9
  6
CONTINUOUS
 10
199.8843231201171875
 20
8.5423393249511719
 30
0.0
 11
200.0252838134765909
 21
8.5423393249511719
 31
0.0
  0
LINE
  5
D8
100
AcDbEntity
100
AcDbLine
  8
FOREGROUND
 62
8
370
9
  6
CONTINUOUS
 10
204.3949432373046875
 20
8.5423393249511719
 30
0.0
 11
204.3949432373046875
 21
8.5423393249511719
 31
0.0
  0
LINE
  5
D9
100
AcDbEntity
100
AcDbLine
  8
FOREGROUND
 62
8
370
9
  6
CONTINUOUS
 10
205.5930786132811932
 20
8.5423393249511719
 30
0.0
 11
205.5930786132811932
 21
8.5423393249511719
 31
0.0
  0
LINE
  5
DA
100
AcDbEntity
100
AcDbLine
  8
FOREGROUND
 62
8
370
9
  6
CONTINUOUS
 10
189.3125
 20
8.6370925903320312
 30
0.0
 11
194.5984039306640909
 21
8.6370925903320312
 31
0.0
  0
LINE
  5
DB
100
AcDbEntity
100
AcDbLine
  8
FOREGROUND
 62
8
370
9
  6
CONTINUOUS
 10
196.8537292480469034
 20
8.6370925903320312
 30
0.0
 11
197.5585174560546875
 21
8.6370925903320312
 31
0.0
  0
LINE
  5
DC
100
AcDbEntity
100
AcDbLine
  8
FOREGROUND
 62
8
370
9
  6
CONTINUOUS
 10
199.3909759521484091
 20
8.6370925903320312
 30
0.0
 11
200.4481506347655966
 21
8.6370925903320312
 31
0.0
  0
LINE
  5
DD
100
AcDbEntity
100
AcDbLine
  8
FOREGROUND
 62
8
370
9
  6
CONTINUOUS
 10
201.2938842773438068
 20
8.6370925903320312
 30
0.0
 11
201.7872161865234091
 21
8.6370925903320312
 31
0.0
  0
LINE
  5
DE
100
AcDbEntity
100
AcDbLine
  8
FOREGROUND
 62
8
370
9
  6
CONTINUOUS
 10
202.9853668212890909
 20
8.6370925903320312
 30
0.0
 11
203.4082336425780966
 21
8.6370925903320312
 31
0.0
  0
LINE
  5
DF
100
AcDbEntity
100
AcDbLine
  8
FOREGROUND
 62
8
370
9
  6
CONTINUOUS
 10
203.9720611572265909
 20
8.6370925903320312
 30
0.0
 11
205.9454650878905966
 21
8.6370925903320312
 31
0.0
  0
LINE
  5
E0
100
AcDbEntity
100
AcDbLine
  8
FOREGROUND
 62
8
370
9
  6
CONTINUOUS
 10
206.5093078613280966
 20
8.6370925903320312
 30
0.0
 11
208.2712707519530966
 21
8.6370925903320312
 31
0.0
  0
LINE
  5
E1
100
AcDbEntity
100
AcDbLine
  8
FOREGROUND
 62
8
370
9
  6
CONTINUOUS
 10
208.9760589599609091
 20
8.6370925903320312
 30
0.0
 11
209.4694061279296875
 21
8.6370925903320312
 31
0.0
  0
LINE
  5
E2
100
AcDbEntity
100
AcDbLine
  8
FOREGROUND
 62
8
370
9
  6
CONTINUOUS
 10
210.949462890625
 20
8.6370925903320312
 30
0.0
 11
211.3723449707030966
 21
8.6370925903320312
 31
0.0
  0
LINE
  5
E3
100
AcDbEntity
100
AcDbLine
  8
FOREGROUND
 62
8
370
9
  6
CONTINUOUS
 10
189.3125
 20
8.7318572998046875
 30
0.0
 11
195.0212860107421875
 21
8.7318572998046875
 31
0.0
  0
LINE
  5
E4
100
AcDbEntity
100
AcDbLine
  8
FOREGROUND
 62
8
370
9
  6
CONTINUOUS
 10
196.8537292480469034
 20
8.7318572998046875
 30
0.0
 11
197.5585174560546875
 21
8.7318572998046875
 31
0.0
  0
LINE
  5
E5
100
AcDbEntity
100
AcDbLine
  8
FOREGROUND
 62
8
370
9
  6
CONTINUOUS
 10
199.2500152587890909
 20
8.7318572998046875
 30
0.0
 11
199.9548034667969034
 21
8.7318572998046875
 31
0.0
  0
LINE
  5
E6
100
AcDbEntity
100
AcDbLine
  8
FOREGROUND
 62
8
370
9
  6
CONTINUOUS
 10
200.0957641601561932
 20
8.7318572998046875
 30
0.0
 11
200.589111328125
 21
8.7318572998046875
 31
0.0
  0
LINE
  5
E7
100
AcDbEntity
100
AcDbLine
  8
FOREGROUND
 62
8
370
9
  6
CONTINUOUS
 10
201.5758056640625
 20
8.7318572998046875
 30
0.0
 11
201.7167358398438068
 21
8.7318572998046875
 31
0.0
  0
LINE
  5
E8
100
AcDbEntity
100
AcDbLine
  8
FOREGROUND
 62
8
370
9
  6
CONTINUOUS
 10
202.9148864746094034
 20
8.7318572998046875
 30
0.0
 11
203.4082336425780966
 21
8.7318572998046875
 31
0.0
  0
LINE
  5
E9
100
AcDbEntity
100
AcDbLine
  8
FOREGROUND
 62
8
370
9
  6
CONTINUOUS
 10
203.9720611572265909
 20
8.7318572998046875
 30
0.0
 11
205.9454650878905966
 21
8.7318572998046875
 31
0.0
  0
LINE
  5
EA
100
AcDbEntity
100
AcDbLine
  8
FOREGROUND
 62
8
370
9
  6
CONTINUOUS
 10
206.5093078613280966
 20
8.7318572998046875
 30
0.0
 11
207.636962890625
 21
8.7318572998046875
 31
0.0
  0
LINE
  5
EB
100
AcDbEntity
100
AcDbLine
  8
FOREGROUND
 62
8
370
9
  6
CONTINUOUS
 10
207.8484039306640909
 20
8.7318572998046875
 30
0.0
 11
208.4122314453125
 21
8.7318572998046875
 31
0.0
  0
LINE
  5
EC
100
AcDbEntity
100
AcDbLine
  8
FOREGROUND
 62
8
370
9
  6
CONTINUOUS
 10
209.2579803466796875
 20
8.7318572998046875
 30
0.0
 11
209.4694061279296875
 21
8.7318572998046875
 31
0.0
  0
LINE
  5
ED
100
AcDbEntity
100
AcDbLine
  8
FOREGROUND
 62
8
370
9
  6
CONTINUOUS
 10
210.949462890625
 20
8.7318572998046875
 30
0.0
 11
211.3723449707030966
 21
8.7318572998046875
 31
0.0
  0
LINE
  5
EE
100
AcDbEntity
100
AcDbLine
  8
FOREGROUND
 62
8
370
9
  6
CONTINUOUS
 10
194.8098449707030966
 20
8.8266105651855469
 30
0.0
 11
195.3736724853515909
 21
8.8266105651855469
 31
0.0
  0
LINE
  5
EF
100
AcDbEntity
100
AcDbLine
  8
FOREGROUND
 62
8
370
9
  6
CONTINUOUS
 10
196.9946899414061932
 20
8.8266105651855469
 30
0.0
 11
197.6289978027344034
 21
8.8266105651855469
 31
0.0
  0
LINE
  5
F0
100
AcDbEntity
100
AcDbLine
  8
FOREGROUND
 62
8
370
9
  6
CONTINUOUS
 10
200.3071899414061932
 20
8.8266105651855469
 30
0.0
 11
200.8005523681640909
 21
8.8266105651855469
 31
0.0
  0
LINE
  5
F1
100
AcDbEntity
100
AcDbLine
  8
FOREGROUND
 62
8
370
9
  6
CONTINUOUS
 10
201.6462554931640909
 20
8.8266105651855469
 30
0.0
 11
201.7167358398438068
 21
8.8266105651855469
 31
0.0
  0
LINE
  5
F2
100
AcDbEntity
100
AcDbLine
  8
FOREGROUND
 62
8
370
9
  6
CONTINUOUS
 10
203.2672729492188068
 20
8.8266105651855469
 30
0.0
 11
203.4082336425780966
 21
8.8266105651855469
 31
0.0
  0
LINE
  5
F3
100
AcDbEntity
100
AcDbLine
  8
FOREGROUND
 62
8
370
9
  6
CONTINUOUS
 10
205.8749847412109091
 20
8.8266105651855469
 30
0.0
 11
205.9454650878905966
 21
8.8266105651855469
 31
0.0
  0
LINE
  5
F4
100
AcDbEntity
100
AcDbLine
  8
FOREGROUND
 62
8
370
9
  6
CONTINUOUS
 10
208.2007904052734091
 20
8.8266105651855469
 30
0.0
 11
208.4827117919921875
 21
8.8266105651855469
 31
0.0
  0
LINE
  5
F5
100
AcDbEntity
100
AcDbLine
  8
FOREGROUND
 62
8
370
9
  6
CONTINUOUS
 10
209.39892578125
 20
8.8266105651855469
 30
0.0
 11
209.5398864746094034
 21
8.8266105651855469
 31
0.0
  0
LINE
  5
F6
100
AcDbEntity
100
AcDbLine
  8
FOREGROUND
 62
8
370
9
  6
CONTINUOUS
 10
210.738037109375
 20
8.8266105651855469
 30
0.0
 11
210.738037109375
 21
8.8266105651855469
 31
0.0
  0
LINE
  5
F7
100
AcDbEntity
100
AcDbLine
  8
FOREGROUND
 62
8
370
9
  6
CONTINUOUS
 10
211.3018646240234091
 20
8.8266105651855469
 30
0.0
 11
211.3723449707030966
 21
8.8266105651855469
 31
0.0
  0
LINE
  5
F8
100
AcDbEntity
100
AcDbLine
  8
FOREGROUND
 62
8
370
9
  6
CONTINUOUS
 10
195.0917663574219034
 20
8.9213752746582031
 30
0.0
 11
195.5146331787109091
 21
8.9213752746582031
 31
0.0
  0
LINE
  5
F9
100
AcDbEntity
100
AcDbLine
  8
FOREGROUND
 62
8
370
9
  6
CONTINUOUS
 10
196.9946899414061932
 20
8.9213752746582031
 30
0.0
 11
197.6289978027344034
 21
8.9213752746582031
 31
0.0
  0
LINE
  5
FA
100
AcDbEntity
100
AcDbLine
  8
FOREGROUND
 62
8
370
9
  6
CONTINUOUS
 10
200.4481506347655966
 20
8.9213752746582031
 30
0.0
 11
200.8005523681640909
 21
8.9213752746582031
 31
0.0
  0
LINE
  5
FB
100
AcDbEntity
100
AcDbLine
  8
FOREGROUND
 62
8
370
9
  6
CONTINUOUS
 10
201.6462554931640909
 20
8.9213752746582031
 30
0.0
 11
201.7167358398438068
 21
8.9213752746582031
 31
0.0
  0
LINE
  5
FC
100
AcDbEntity
100
AcDbLine
  8
FOREGROUND
 62
8
370
9
  6
CONTINUOUS
 10
203.2672729492188068
 20
8.9213752746582031
 30
0.0
 11
203.4082336425780966
 21
8.9213752746582031
 31
0.0
  0
LINE
  5
FD
100
AcDbEntity
100
AcDbLine
  8
FOREGROUND
 62
8
370
9
  6
CONTINUOUS
 10
205.8749847412109091
 20
8.9213752746582031
 30
0.0
 11
205.9454650878905966
 21
8.9213752746582031
 31
0.0
  0
LINE
  5
FE
100
AcDbEntity
100
AcDbLine
  8
FOREGROUND
 62
8
370
9
  6
CONTINUOUS
 10
208.2712707519530966
 20
8.9213752746582031
 30
0.0
 11
208.5531921386719034
 21
8.9213752746582031
 31
0.0
  0
LINE
  5
FF
100
AcDbEntity
100
AcDbLine
  8
FOREGROUND
 62
8
370
9
  6
CONTINUOUS
 10
209.4694061279296875
 20
8.9213752746582031
 30
0.0
 11
209.5398864746094034
 21
8.9213752746582031
 31
0.0
  0
LINE
  5
100
100
AcDbEntity
100
AcDbLine
  8
FOREGROUND
 62
8
370
9
  6
CONTINUOUS
 10
211.3018646240234091
 20
8.9213752746582031
 30
0.0
 11
211.3018646240234091
 21
8.9213752746582031
 31
0.0
  0
LINE
  5
101
100
AcDbEntity
100
AcDbLine
  8
FOREGROUND
 62
8
370
9
  6
CONTINUOUS
 10
195.3736724853515909
 20
9.0161285400390625
 30
0.0
 11
195.72607421875
 21
9.0161285400390625
 31
0.0
  0
LINE
  5
102
100
AcDbEntity
100
AcDbLine
  8
FOREGROUND
 62
8
370
9
  6
CONTINUOUS
 10
197.0651702880859091
 20
9.0161285400390625
 30
0.0
 11
197.6994781494140909
 21
9.0161285400390625
 31
0.0
  0
LINE
  5
103
100
AcDbEntity
100
AcDbLine
  8
FOREGROUND
 62
8
370
9
  6
CONTINUOUS
 10
200.589111328125
 20
9.0161285400390625
 30
0.0
 11
200.8005523681640909
 21
9.0161285400390625
 31
0.0
  0
LINE
  5
104
100
AcDbEntity
100
AcDbLine
  8
FOREGROUND
 62
8
370
9
  6
CONTINUOUS
 10
201.6462554931640909
 20
9.0161285400390625
 30
0.0
 11
201.7167358398438068
 21
9.0161285400390625
 31
0.0
  0
LINE
  5
105
100
AcDbEntity
100
AcDbLine
  8
FOREGROUND
 62
8
370
9
  6
CONTINUOUS
 10
203.2672729492188068
 20
9.0161285400390625
 30
0.0
 11
203.4082336425780966
 21
9.0161285400390625
 31
0.0
  0
LINE
  5
106
100
AcDbEntity
100
AcDbLine
  8
FOREGROUND
 62
8
370
9
  6
CONTINUOUS
 10
208.4122314453125
 20
9.0161285400390625
 30
0.0
 11
208.6236724853515909
 21
9.0161285400390625
 31
0.0
  0
LINE
  5
107
100
AcDbEntity
100
AcDbLine
  8
FOREGROUND
 62
8
370
9
  6
CONTINUOUS
 10
209.4694061279296875
 20
9.0161285400390625
 30
0.0
 11
209.6103668212890909
 21
9.0161285400390625
 31
0.0
  0
LINE
  5
108
100
AcDbEntity
100
AcDbLine
  8
FOREGROUND
 62
8
370
9
  6
CONTINUOUS
 10
211.2313842773438068
 20
9.0161285400390625
 30
0.0
 11
211.2313842773438068
 21
9.0161285400390625
 31
0.0
  0
LINE
  5
109
100
AcDbEntity
100
AcDbLine
  8
FOREGROUND
 62
8
370
9
  6
CONTINUOUS
 10
195.6555938720703125
 20
9.1108856201171875
 30
0.0
 11
195.8670349121094034
 21
9.1108856201171875
 31
0.0
  0
LINE
  5
10A
100
AcDbEntity
100
AcDbLine
  8
FOREGROUND
 62
8
370
9
  6
CONTINUOUS
 10
197.1356506347655966
 20
9.1108856201171875
 30
0.0
 11
197.7699584960938068
 21
9.1108856201171875
 31
0.0
  0
LINE
  5
10B
100
AcDbEntity
100
AcDbLine
  8
FOREGROUND
 62
8
370
9
  6
CONTINUOUS
 10
200.7300720214844034
 20
9.1108856201171875
 30
0.0
 11
200.8005523681640909
 21
9.1108856201171875
 31
0.0
  0
LINE
  5
10C
100
AcDbEntity
100
AcDbLine
  8
FOREGROUND
 62
8
370
9
  6
CONTINUOUS
 10
201.6462554931640909
 20
9.1108856201171875
 30
0.0
 11
201.7167358398438068
 21
9.1108856201171875
 31
0.0
  0
LINE
  5
10D
100
AcDbEntity
100
AcDbLine
  8
FOREGROUND
 62
8
370
9
  6
CONTINUOUS
 10
203.2672729492188068
 20
9.1108856201171875
 30
0.0
 11
203.4082336425780966
 21
9.1108856201171875
 31
0.0
  0
LINE
  5
10E
100
AcDbEntity
100
AcDbLine
  8
FOREGROUND
 62
8
370
9
  6
CONTINUOUS
 10
208.4827117919921875
 20
9.1108856201171875
 30
0.0
 11
208.6236724853515909
 21
9.1108856201171875
 31
0.0
  0
LINE
  5
10F
100
AcDbEntity
100
AcDbLine
  8
FOREGROUND
 62
8
370
9
  6
CONTINUOUS
 10
209.4694061279296875
 20
9.1108856201171875
 30
0.0
 11
209.6103668212890909
 21
9.1108856201171875
 31
0.0
  0
LINE
  5
110
100
AcDbEntity
100
AcDbLine
  8
FOREGROUND
 62
8
370
9
  6
CONTINUOUS
 10
211.1609039306640909
 20
9.1108856201171875
 30
0.0
 11
211.2313842773438068
 21
9.1108856201171875
 31
0.0
  0
LINE
  5
111
100
AcDbEntity
100
AcDbLine
  8
FOREGROUND
 62
8
370
9
  6
CONTINUOUS
 10
195.72607421875
 20
9.2056465148925781
 30
0.0
 11
195.9375152587890909
 21
9.2056465148925781
 31
0.0
  0
LINE
  5
112
100
AcDbEntity
100
AcDbLine
  8
FOREGROUND
 62
8
370
9
  6
CONTINUOUS
 10
197.2061309814453125
 20
9.2056465148925781
 30
0.0
 11
197.7699584960938068
 21
9.2056465148925781
 31
0.0
  0
LINE
  5
113
100
AcDbEntity
100
AcDbLine
  8
FOREGROUND
 62
8
370
9
  6
CONTINUOUS
 10
200.7300720214844034
 20
9.2056465148925781
 30
0.0
 11
200.8005523681640909
 21
9.2056465148925781
 31
0.0
  0
LINE
  5
114
100
AcDbEntity
100
AcDbLine
  8
FOREGROUND
 62
8
370
9
  6
CONTINUOUS
 10
201.6462554931640909
 20
9.2056465148925781
 30
0.0
 11
201.7167358398438068
 21
9.2056465148925781
 31
0.0
  0
LINE
  5
115
100
AcDbEntity
100
AcDbLine
  8
FOREGROUND
 62
8
370
9
  6
CONTINUOUS
 10
203.2672729492188068
 20
9.2056465148925781
 30
0.0
 11
203.4082336425780966
 21
9.2056465148925781
 31
0.0
  0
LINE
  5
116
100
AcDbEntity
100
AcDbLine
  8
FOREGROUND
 62
8
370
9
  6
CONTINUOUS
 10
204.3949432373046875
 20
9.2056465148925781
 30
0.0
 11
204.4654083251953125
 21
9.2056465148925781
 31
0.0
  0
LINE
  5
117
100
AcDbEntity
100
AcDbLine
  8
FOREGROUND
 62
8
370
9
  6
CONTINUOUS
 10
206.8616943359375
 20
9.2056465148925781
 30
0.0
 11
207.0026550292969034
 21
9.2056465148925781
 31
0.0
  0
LINE
  5
118
100
AcDbEntity
100
AcDbLine
  8
FOREGROUND
 62
8
370
9
  6
CONTINUOUS
 10
208.4827117919921875
 20
9.2056465148925781
 30
0.0
 11
208.6941375732421875
 21
9.2056465148925781
 31
0.0
  0
LINE
  5
119
100
AcDbEntity
100
AcDbLine
  8
FOREGROUND
 62
8
370
9
  6
CONTINUOUS
 10
209.5398864746094034
 20
9.2056465148925781
 30
0.0
 11
209.6808471679688068
 21
9.2056465148925781
 31
0.0
  0
LINE
  5
11A
100
AcDbEntity
100
AcDbLine
  8
FOREGROUND
 62
8
370
9
  6
CONTINUOUS
 10
210.5970764160155966
 20
9.2056465148925781
 30
0.0
 11
210.5970764160155966
 21
9.2056465148925781
 31
0.0
  0
LINE
  5
11B
100
AcDbEntity
100
AcDbLine
  8
FOREGROUND
 62
8
370
9
  6
CONTINUOUS
 10
211.1609039306640909
 20
9.2056465148925781
 30
0.0
 11
211.2313842773438068
 21
9.2056465148925781
 31
0.0
  0
LINE
  5
11C
100
AcDbEntity
100
AcDbLine
  8
FOREGROUND
 62
8
370
9
  6
CONTINUOUS
 10
195.8670349121094034
 20
9.3003997802734375
 30
0.0
 11
196.0784606933594034
 21
9.3003997802734375
 31
0.0
  0
LINE
  5
11D
100
AcDbEntity
100
AcDbLine
  8
FOREGROUND
 62
8
370
9
  6
CONTINUOUS
 10
197.2061309814453125
 20
9.3003997802734375
 30
0.0
 11
197.8404388427734091
 21
9.3003997802734375
 31
0.0
  0
LINE
  5
11E
100
AcDbEntity
100
AcDbLine
  8
FOREGROUND
 62
8
370
9
  6
CONTINUOUS
 10
200.7300720214844034
 20
9.3003997802734375
 30
0.0
 11
200.8005523681640909
 21
9.3003997802734375
 31
0.0
  0
LINE
  5
11F
100
AcDbEntity
100
AcDbLine
  8
FOREGROUND
 62
8
370
9
  6
CONTINUOUS
 10
201.6462554931640909
 20
9.3003997802734375
 30
0.0
 11
201.7167358398438068
 21
9.3003997802734375
 31
0.0
  0
LINE
  5
120
100
AcDbEntity
100
AcDbLine
  8
FOREGROUND
 62
8
370
9
  6
CONTINUOUS
 10
203.3377532958984091
 20
9.3003997802734375
 30
0.0
 11
203.4082336425780966
 21
9.3003997802734375
 31
0.0
  0
LINE
  5
121
100
AcDbEntity
100
AcDbLine
  8
FOREGROUND
 62
8
370
9
  6
CONTINUOUS
 10
204.3949432373046875
 20
9.3003997802734375
 30
0.0
 11
204.4654083251953125
 21
9.3003997802734375
 31
0.0
  0
LINE
  5
122
100
AcDbEntity
100
AcDbLine
  8
FOREGROUND
 62
8
370
9
  6
CONTINUOUS
 10
206.8616943359375
 20
9.3003997802734375
 30
0.0
 11
206.9321746826171875
 21
9.3003997802734375
 31
0.0
  0
LINE
  5
123
100
AcDbEntity
100
AcDbLine
  8
FOREGROUND
 62
8
370
9
  6
CONTINUOUS
 10
207.9893493652344034
 20
9.3003997802734375
 30
0.0
 11
207.9893493652344034
 21
9.3003997802734375
 31
0.0
  0
LINE
  5
124
100
AcDbEntity
100
AcDbLine
  8
FOREGROUND
 62
8
370
9
  6
CONTINUOUS
 10
208.5531921386719034
 20
9.3003997802734375
 30
0.0
 11
208.6941375732421875
 21
9.3003997802734375
 31
0.0
  0
LINE
  5
125
100
AcDbEntity
100
AcDbLine
  8
FOREGROUND
 62
8
370
9
  6
CONTINUOUS
 10
209.5398864746094034
 20
9.3003997802734375
 30
0.0
 11
210.5970764160155966
 21
9.3003997802734375
 31
0.0
  0
LINE
  5
126
100
AcDbEntity
100
AcDbLine
  8
FOREGROUND
 62
8
370
9
  6
CONTINUOUS
 10
211.0904235839844034
 20
9.3003997802734375
 30
0.0
 11
211.1609039306640909
 21
9.3003997802734375
 31
0.0
  0
LINE
  5
127
100
AcDbEntity
100
AcDbLine
  8
FOREGROUND
 62
8
370
9
  6
CONTINUOUS
 10
195.9375152587890909
 20
9.3951644897460938
 30
0.0
 11
196.1489410400390909
 21
9.3951644897460938
 31
0.0
  0
LINE
  5
128
100
AcDbEntity
100
AcDbLine
  8
FOREGROUND
 62
8
370
9
  6
CONTINUOUS
 10
197.2061309814453125
 20
9.3951644897460938
 30
0.0
 11
197.9109191894530966
 21
9.3951644897460938
 31
0.0
  0
LINE
  5
129
100
AcDbEntity
100
AcDbLine
  8
FOREGROUND
 62
8
370
9
  6
CONTINUOUS
 10
201.6462554931640909
 20
9.3951644897460938
 30
0.0
 11
201.7167358398438068
 21
9.3951644897460938
 31
0.0
  0
LINE
  5
12A
100
AcDbEntity
100
AcDbLine
  8
FOREGROUND
 62
8
370
9
  6
CONTINUOUS
 10
203.2672729492188068
 20
9.3951644897460938
 30
0.0
 11
203.4082336425780966
 21
9.3951644897460938
 31
0.0
  0
LINE
  5
12B
100
AcDbEntity
100
AcDbLine
  8
FOREGROUND
 62
8
370
9
  6
CONTINUOUS
 10
204.3949432373046875
 20
9.3951644897460938
 30
0.0
 11
204.4654083251953125
 21
9.3951644897460938
 31
0.0
  0
LINE
  5
12C
100
AcDbEntity
100
AcDbLine
  8
FOREGROUND
 62
8
370
9
  6
CONTINUOUS
 10
206.8616943359375
 20
9.3951644897460938
 30
0.0
 11
206.9321746826171875
 21
9.3951644897460938
 31
0.0
  0
LINE
  5
12D
100
AcDbEntity
100
AcDbLine
  8
FOREGROUND
 62
8
370
9
  6
CONTINUOUS
 10
208.5531921386719034
 20
9.3951644897460938
 30
0.0
 11
208.6941375732421875
 21
9.3951644897460938
 31
0.0
  0
LINE
  5
12E
100
AcDbEntity
100
AcDbLine
  8
FOREGROUND
 62
8
370
9
  6
CONTINUOUS
 10
209.6103668212890909
 20
9.3951644897460938
 30
0.0
 11
210.5265960693359091
 21
9.3951644897460938
 31
0.0
  0
LINE
  5
12F
100
AcDbEntity
100
AcDbLine
  8
FOREGROUND
 62
8
370
9
  6
CONTINUOUS
 10
211.0904235839844034
 20
9.3951644897460938
 30
0.0
 11
211.1609039306640909
 21
9.3951644897460938
 31
0.0
  0
LINE
  5
130
100
AcDbEntity
100
AcDbLine
  8
FOREGROUND
 62
8
370
9
  6
CONTINUOUS
 10
196.0784606933594034
 20
9.4899177551269531
 30
0.0
 11
196.2194213867188068
 21
9.4899177551269531
 31
0.0
  0
LINE
  5
131
100
AcDbEntity
100
AcDbLine
  8
FOREGROUND
 62
8
370
9
  6
CONTINUOUS
 10
197.276611328125
 20
9.4899177551269531
 30
0.0
 11
197.9109191894530966
 21
9.4899177551269531
 31
0.0
  0
LINE
  5
132
100
AcDbEntity
100
AcDbLine
  8
FOREGROUND
 62
8
370
9
  6
CONTINUOUS
 10
199.1795349121094034
 20
9.4899177551269531
 30
0.0
 11
199.1795349121094034
 21
9.4899177551269531
 31
0.0
  0
LINE
  5
133
100
AcDbEntity
100
AcDbLine
  8
FOREGROUND
 62
8
370
9
  6
CONTINUOUS
 10
201.6462554931640909
 20
9.4899177551269531
 30
0.0
 11
201.7872161865234091
 21
9.4899177551269531
 31
0.0
  0
LINE
  5
134
100
AcDbEntity
100
AcDbLine
  8
FOREGROUND
 62
8
370
9
  6
CONTINUOUS
 10
203.2672729492188068
 20
9.4899177551269531
 30
0.0
 11
203.4082336425780966
 21
9.4899177551269531
 31
0.0
  0
LINE
  5
135
100
AcDbEntity
100
AcDbLine
  8
FOREGROUND
 62
8
370
9
  6
CONTINUOUS
 10
204.3949432373046875
 20
9.4899177551269531
 30
0.0
 11
204.4654083251953125
 21
9.4899177551269531
 31
0.0
  0
LINE
  5
136
100
AcDbEntity
100
AcDbLine
  8
FOREGROUND
 62
8
370
9
  6
CONTINUOUS
 10
206.8616943359375
 20
9.4899177551269531
 30
0.0
 11
206.9321746826171875
 21
9.4899177551269531
 31
0.0
  0
LINE
  5
137
100
AcDbEntity
100
AcDbLine
  8
FOREGROUND
 62
8
370
9
  6
CONTINUOUS
 10
208.5531921386719034
 20
9.4899177551269531
 30
0.0
 11
208.6236724853515909
 21
9.4899177551269531
 31
0.0
  0
LINE
  5
138
100
AcDbEntity
100
AcDbLine
  8
FOREGROUND
 62
8
370
9
  6
CONTINUOUS
 10
211.0904235839844034
 20
9.4899177551269531
 30
0.0
 11
211.0904235839844034
 21
9.4899177551269531
 31
0.0
  0
LINE
  5
139
100
AcDbEntity
100
AcDbLine
  8
FOREGROUND
 62
8
370
9
  6
CONTINUOUS
 10
196.0784606933594034
 20
9.5846786499023438
 30
0.0
 11
196.2194213867188068
 21
9.5846786499023438
 31
0.0
  0
LINE
  5
13A
100
AcDbEntity
100
AcDbLine
  8
FOREGROUND
 62
8
370
9
  6
CONTINUOUS
 10
197.3470916748046875
 20
9.5846786499023438
 30
0.0
 11
197.9109191894530966
 21
9.5846786499023438
 31
0.0
  0
LINE
  5
13B
100
AcDbEntity
100
AcDbLine
  8
FOREGROUND
 62
8
370
9
  6
CONTINUOUS
 10
199.1090545654296875
 20
9.5846786499023438
 30
0.0
 11
199.1090545654296875
 21
9.5846786499023438
 31
0.0
  0
LINE
  5
13C
100
AcDbEntity
100
AcDbLine
  8
FOREGROUND
 62
8
370
9
  6
CONTINUOUS
 10
201.6462554931640909
 20
9.5846786499023438
 30
0.0
 11
201.7872161865234091
 21
9.5846786499023438
 31
0.0
  0
LINE
  5
13D
100
AcDbEntity
100
AcDbLine
  8
FOREGROUND
 62
8
370
9
  6
CONTINUOUS
 10
203.2672729492188068
 20
9.5846786499023438
 30
0.0
 11
203.4082336425780966
 21
9.5846786499023438
 31
0.0
  0
LINE
  5
13E
100
AcDbEntity
100
AcDbLine
  8
FOREGROUND
 62
8
370
9
  6
CONTINUOUS
 10
204.3949432373046875
 20
9.5846786499023438
 30
0.0
 11
204.4654083251953125
 21
9.5846786499023438
 31
0.0
  0
LINE
  5
13F
100
AcDbEntity
100
AcDbLine
  8
FOREGROUND
 62
8
370
9
  6
CONTINUOUS
 10
206.8616943359375
 20
9.5846786499023438
 30
0.0
 11
206.9321746826171875
 21
9.5846786499023438
 31
0.0
  0
LINE
  5
140
100
AcDbEntity
100
AcDbLine
  8
FOREGROUND
 62
8
370
9
  6
CONTINUOUS
 10
208.5531921386719034
 20
9.5846786499023438
 30
0.0
 11
208.6236724853515909
 21
9.5846786499023438
 31
0.0
  0
LINE
  5
141
100
AcDbEntity
100
AcDbLine
  8
FOREGROUND
 62
8
370
9
  6
CONTINUOUS
 10
211.0199432373046875
 20
9.5846786499023438
 30
0.0
 11
211.0904235839844034
 21
9.5846786499023438
 31
0.0
  0
LINE
  5
142
100
AcDbEntity
100
AcDbLine
  8
FOREGROUND
 62
8
370
9
  6
CONTINUOUS
 10
196.1489410400390909
 20
9.6794357299804688
 30
0.0
 11
196.2899017333984091
 21
9.6794357299804688
 31
0.0
  0
LINE
  5
143
100
AcDbEntity
100
AcDbLine
  8
FOREGROUND
 62
8
370
9
  6
CONTINUOUS
 10
197.3470916748046875
 20
9.6794357299804688
 30
0.0
 11
197.9109191894530966
 21
9.6794357299804688
 31
0.0
  0
LINE
  5
144
100
AcDbEntity
100
AcDbLine
  8
FOREGROUND
 62
8
370
9
  6
CONTINUOUS
 10
198.9680938720703125
 20
9.6794357299804688
 30
0.0
 11
199.03857421875
 21
9.6794357299804688
 31
0.0
  0
LINE
  5
145
100
AcDbEntity
100
AcDbLine
  8
FOREGROUND
 62
8
370
9
  6
CONTINUOUS
 10
201.6462554931640909
 20
9.6794357299804688
 30
0.0
 11
201.7872161865234091
 21
9.6794357299804688
 31
0.0
  0
LINE
  5
146
100
AcDbEntity
100
AcDbLine
  8
FOREGROUND
 62
8
370
9
  6
CONTINUOUS
 10
203.2672729492188068
 20
9.6794357299804688
 30
0.0
 11
203.4082336425780966
 21
9.6794357299804688
 31
0.0
  0
LINE
  5
147
100
AcDbEntity
100
AcDbLine
  8
FOREGROUND
 62
8
370
9
  6
CONTINUOUS
 10
204.3949432373046875
 20
9.6794357299804688
 30
0.0
 11
204.4654083251953125
 21
9.6794357299804688
 31
0.0
  0
LINE
  5
148
100
AcDbEntity
100
AcDbLine
  8
FOREGROUND
 62
8
370
9
  6
CONTINUOUS
 10
206.8616943359375
 20
9.6794357299804688
 30
0.0
 11
206.9321746826171875
 21
9.6794357299804688
 31
0.0
  0
LINE
  5
149
100
AcDbEntity
100
AcDbLine
  8
FOREGROUND
 62
8
370
9
  6
CONTINUOUS
 10
208.5531921386719034
 20
9.6794357299804688
 30
0.0
 11
208.5531921386719034
 21
9.6794357299804688
 31
0.0
  0
LINE
  5
14A
100
AcDbEntity
100
AcDbLine
  8
FOREGROUND
 62
8
370
9
  6
CONTINUOUS
 10
211.0199432373046875
 20
9.6794357299804688
 30
0.0
 11
211.0199432373046875
 21
9.6794357299804688
 31
0.0
  0
LINE
  5
14B
100
AcDbEntity
100
AcDbLine
  8
FOREGROUND
 62
8
370
9
  6
CONTINUOUS
 10
196.2194213867188068
 20
9.7741966247558594
 30
0.0
 11
196.2899017333984091
 21
9.7741966247558594
 31
0.0
  0
LINE
  5
14C
100
AcDbEntity
100
AcDbLine
  8
FOREGROUND
 62
8
370
9
  6
CONTINUOUS
 10
197.3470916748046875
 20
9.7741966247558594
 30
0.0
 11
197.9109191894530966
 21
9.7741966247558594
 31
0.0
  0
LINE
  5
14D
100
AcDbEntity
100
AcDbLine
  8
FOREGROUND
 62
8
370
9
  6
CONTINUOUS
 10
198.9680938720703125
 20
9.7741966247558594
 30
0.0
 11
199.03857421875
 21
9.7741966247558594
 31
0.0
  0
LINE
  5
14E
100
AcDbEntity
100
AcDbLine
  8
FOREGROUND
 62
8
370
9
  6
CONTINUOUS
 10
201.6462554931640909
 20
9.7741966247558594
 30
0.0
 11
201.7872161865234091
 21
9.7741966247558594
 31
0.0
  0
LINE
  5
14F
100
AcDbEntity
100
AcDbLine
  8
FOREGROUND
 62
8
370
9
  6
CONTINUOUS
 10
202.77392578125
 20
9.7741966247558594
 30
0.0
 11
202.77392578125
 21
9.7741966247558594
 31
0.0
  0
LINE
  5
150
100
AcDbEntity
100
AcDbLine
  8
FOREGROUND
 62
8
370
9
  6
CONTINUOUS
 10
203.2672729492188068
 20
9.7741966247558594
 30
0.0
 11
203.4082336425780966
 21
9.7741966247558594
 31
0.0
  0
LINE
  5
151
100
AcDbEntity
100
AcDbLine
  8
FOREGROUND
 62
8
370
9
  6
CONTINUOUS
 10
204.3949432373046875
 20
9.7741966247558594
 30
0.0
 11
204.4654083251953125
 21
9.7741966247558594
 31
0.0
  0
LINE
  5
152
100
AcDbEntity
100
AcDbLine
  8
FOREGROUND
 62
8
370
9
  6
CONTINUOUS
 10
206.8616943359375
 20
9.7741966247558594
 30
0.0
 11
206.9321746826171875
 21
9.7741966247558594
 31
0.0
  0
LINE
  5
153
100
AcDbEntity
100
AcDbLine
  8
FOREGROUND
 62
8
370
9
  6
CONTINUOUS
 10
207.9893493652344034
 20
9.7741966247558594
 30
0.0
 11
207.9893493652344034
 21
9.7741966247558594
 31
0.0
  0
LINE
  5
154
100
AcDbEntity
100
AcDbLine
  8
FOREGROUND
 62
8
370
9
  6
CONTINUOUS
 10
208.5531921386719034
 20
9.7741966247558594
 30
0.0
 11
208.5531921386719034
 21
9.7741966247558594
 31
0.0
  0
LINE
  5
155
100
AcDbEntity
100
AcDbLine
  8
FOREGROUND
 62
8
370
9
  6
CONTINUOUS
 10
209.6103668212890909
 20
9.7741966247558594
 30
0.0
 11
209.6103668212890909
 21
9.7741966247558594
 31
0.0
  0
LINE
  5
156
100
AcDbEntity
100
AcDbLine
  8
FOREGROUND
 62
8
370
9
  6
CONTINUOUS
 10
210.949462890625
 20
9.7741966247558594
 30
0.0
 11
211.0199432373046875
 21
9.7741966247558594
 31
0.0
  0
LINE
  5
157
100
AcDbEntity
100
AcDbLine
  8
FOREGROUND
 62
8
370
9
  6
CONTINUOUS
 10
196.2194213867188068
 20
9.8689498901367188
 30
0.0
 11
196.3603820800780966
 21
9.8689498901367188
 31
0.0
  0
LINE
  5
158
100
AcDbEntity
100
AcDbLine
  8
FOREGROUND
 62
8
370
9
  6
CONTINUOUS
 10
197.3470916748046875
 20
9.8689498901367188
 30
0.0
 11
197.9109191894530966
 21
9.8689498901367188
 31
0.0
  0
LINE
  5
159
100
AcDbEntity
100
AcDbLine
  8
FOREGROUND
 62
8
370
9
  6
CONTINUOUS
 10
198.9680938720703125
 20
9.8689498901367188
 30
0.0
 11
199.03857421875
 21
9.8689498901367188
 31
0.0
  0
LINE
  5
15A
100
AcDbEntity
100
AcDbLine
  8
FOREGROUND
 62
8
370
9
  6
CONTINUOUS
 10
201.6462554931640909
 20
9.8689498901367188
 30
0.0
 11
202.7034454345703125
 21
9.8689498901367188
 31
0.0
  0
LINE
  5
15B
100
AcDbEntity
100
AcDbLine
  8
FOREGROUND
 62
8
370
9
  6
CONTINUOUS
 10
203.2672729492188068
 20
9.8689498901367188
 30
0.0
 11
203.4082336425780966
 21
9.8689498901367188
 31
0.0
  0
LINE
  5
15C
100
AcDbEntity
100
AcDbLine
  8
FOREGROUND
 62
8
370
9
  6
CONTINUOUS
 10
204.3949432373046875
 20
9.8689498901367188
 30
0.0
 11
205.8045196533203125
 21
9.8689498901367188
 31
0.0
  0
LINE
  5
15D
100
AcDbEntity
100
AcDbLine
  8
FOREGROUND
 62
8
370
9
  6
CONTINUOUS
 10
206.8616943359375
 20
9.8689498901367188
 30
0.0
 11
207.9893493652344034
 21
9.8689498901367188
 31
0.0
  0
LINE
  5
15E
100
AcDbEntity
100
AcDbLine
  8
FOREGROUND
 62
8
370
9
  6
CONTINUOUS
 10
208.4827117919921875
 20
9.8689498901367188
 30
0.0
 11
208.4827117919921875
 21
9.8689498901367188
 31
0.0
  0
LINE
  5
15F
100
AcDbEntity
100
AcDbLine
  8
FOREGROUND
 62
8
370
9
  6
CONTINUOUS
 10
209.6808471679688068
 20
9.8689498901367188
 30
0.0
 11
209.9627685546875
 21
9.8689498901367188
 31
0.0
  0
LINE
  5
160
100
AcDbEntity
100
AcDbLine
  8
FOREGROUND
 62
8
370
9
  6
CONTINUOUS
 10
210.949462890625
 20
9.8689498901367188
 30
0.0
 11
210.949462890625
 21
9.8689498901367188
 31
0.0
  0
LINE
  5
161
100
AcDbEntity
100
AcDbLine
  8
FOREGROUND
 62
8
370
9
  6
CONTINUOUS
 10
196.2194213867188068
 20
9.963714599609375
 30
0.0
 11
196.3603820800780966
 21
9.963714599609375
 31
0.0
  0
LINE
  5
162
100
AcDbEntity
100
AcDbLine
  8
FOREGROUND
 62
8
370
9
  6
CONTINUOUS
 10
197.3470916748046875
 20
9.963714599609375
 30
0.0
 11
197.9109191894530966
 21
9.963714599609375
 31
0.0
  0
LINE
  5
163
100
AcDbEntity
100
AcDbLine
  8
FOREGROUND
 62
8
370
9
  6
CONTINUOUS
 10
198.9680938720703125
 20
9.963714599609375
 30
0.0
 11
199.03857421875
 21
9.963714599609375
 31
0.0
  0
LINE
  5
164
100
AcDbEntity
100
AcDbLine
  8
FOREGROUND
 62
8
370
9
  6
CONTINUOUS
 10
201.6462554931640909
 20
9.963714599609375
 30
0.0
 11
201.6462554931640909
 21
9.963714599609375
 31
0.0
  0
LINE
  5
165
100
AcDbEntity
100
AcDbLine
  8
FOREGROUND
 62
8
370
9
  6
CONTINUOUS
 10
203.2672729492188068
 20
9.963714599609375
 30
0.0
 11
203.4082336425780966
 21
9.963714599609375
 31
0.0
  0
LINE
  5
166
100
AcDbEntity
100
AcDbLine
  8
FOREGROUND
 62
8
370
9
  6
CONTINUOUS
 10
205.7340393066405966
 20
9.963714599609375
 30
0.0
 11
205.8045196533203125
 21
9.963714599609375
 31
0.0
  0
LINE
  5
167
100
AcDbEntity
100
AcDbLine
  8
FOREGROUND
 62
8
370
9
  6
CONTINUOUS
 10
208.4122314453125
 20
9.963714599609375
 30
0.0
 11
208.4122314453125
 21
9.963714599609375
 31
0.0
  0
LINE
  5
168
100
AcDbEntity
100
AcDbLine
  8
FOREGROUND
 62
8
370
9
  6
CONTINUOUS
 10
209.7513275146484091
 20
9.963714599609375
 30
0.0
 11
209.8922882080078125
 21
9.963714599609375
 31
0.0
  0
LINE
  5
169
100
AcDbEntity
100
AcDbLine
  8
FOREGROUND
 62
8
370
9
  6
CONTINUOUS
 10
210.8789825439453125
 20
9.963714599609375
 30
0.0
 11
210.949462890625
 21
9.963714599609375
 31
0.0
  0
LINE
  5
16A
100
AcDbEntity
100
AcDbLine
  8
FOREGROUND
 62
8
370
9
  6
CONTINUOUS
 10
196.2899017333984091
 20
10.0584678649902308
 30
0.0
 11
196.3603820800780966
 21
10.0584678649902308
 31
0.0
  0
LINE
  5
16B
100
AcDbEntity
100
AcDbLine
  8
FOREGROUND
 62
8
370
9
  6
CONTINUOUS
 10
197.3470916748046875
 20
10.0584678649902308
 30
0.0
 11
197.9109191894530966
 21
10.0584678649902308
 31
0.0
  0
LINE
  5
16C
100
AcDbEntity
100
AcDbLine
  8
FOREGROUND
 62
8
370
9
  6
CONTINUOUS
 10
198.9680938720703125
 20
10.0584678649902308
 30
0.0
 11
199.03857421875
 21
10.0584678649902308
 31
0.0
  0
LINE
  5
16D
100
AcDbEntity
100
AcDbLine
  8
FOREGROUND
 62
8
370
9
  6
CONTINUOUS
 10
203.2672729492188068
 20
10.0584678649902308
 30
0.0
 11
203.4082336425780966
 21
10.0584678649902308
 31
0.0
  0
LINE
  5
16E
100
AcDbEntity
100
AcDbLine
  8
FOREGROUND
 62
8
370
9
  6
CONTINUOUS
 10
205.7340393066405966
 20
10.0584678649902308
 30
0.0
 11
205.8045196533203125
 21
10.0584678649902308
 31
0.0
  0
LINE
  5
16F
100
AcDbEntity
100
AcDbLine
  8
FOREGROUND
 62
8
370
9
  6
CONTINUOUS
 10
208.3417510986328125
 20
10.0584678649902308
 30
0.0
 11
208.3417510986328125
 21
10.0584678649902308
 31
0.0
  0
LINE
  5
170
100
AcDbEntity
100
AcDbLine
  8
FOREGROUND
 62
8
370
9
  6
CONTINUOUS
 10
209.7513275146484091
 20
10.0584678649902308
 30
0.0
 11
209.9627685546875
 21
10.0584678649902308
 31
0.0
  0
LINE
  5
171
100
AcDbEntity
100
AcDbLine
  8
FOREGROUND
 62
8
370
9
  6
CONTINUOUS
 10
210.8789825439453125
 20
10.0584678649902308
 30
0.0
 11
210.8789825439453125
 21
10.0584678649902308
 31
0.0
  0
LINE
  5
172
100
AcDbEntity
100
AcDbLine
  8
FOREGROUND
 62
8
370
9
  6
CONTINUOUS
 10
196.2899017333984091
 20
10.1532211303710902
 30
0.0
 11
196.3603820800780966
 21
10.1532211303710902
 31
0.0
  0
LINE
  5
173
100
AcDbEntity
100
AcDbLine
  8
FOREGROUND
 62
8
370
9
  6
CONTINUOUS
 10
197.3470916748046875
 20
10.1532211303710902
 30
0.0
 11
197.9109191894530966
 21
10.1532211303710902
 31
0.0
  0
LINE
  5
174
100
AcDbEntity
100
AcDbLine
  8
FOREGROUND
 62
8
370
9
  6
CONTINUOUS
 10
198.9680938720703125
 20
10.1532211303710902
 30
0.0
 11
199.03857421875
 21
10.1532211303710902
 31
0.0
  0
LINE
  5
175
100
AcDbEntity
100
AcDbLine
  8
FOREGROUND
 62
8
370
9
  6
CONTINUOUS
 10
203.2672729492188068
 20
10.1532211303710902
 30
0.0
 11
203.4082336425780966
 21
10.1532211303710902
 31
0.0
  0
LINE
  5
176
100
AcDbEntity
100
AcDbLine
  8
FOREGROUND
 62
8
370
9
  6
CONTINUOUS
 10
205.7340393066405966
 20
10.1532211303710902
 30
0.0
 11
205.8045196533203125
 21
10.1532211303710902
 31
0.0
  0
LINE
  5
177
100
AcDbEntity
100
AcDbLine
  8
FOREGROUND
 62
8
370
9
  6
CONTINUOUS
 10
208.2007904052734091
 20
10.1532211303710902
 30
0.0
 11
208.3417510986328125
 21
10.1532211303710902
 31
0.0
  0
LINE
  5
178
100
AcDbEntity
100
AcDbLine
  8
FOREGROUND
 62
8
370
9
  6
CONTINUOUS
 10
209.8218078613280966
 20
10.1532211303710902
 30
0.0
 11
209.9627685546875
 21
10.1532211303710902
 31
0.0
  0
LINE
  5
179
100
AcDbEntity
100
AcDbLine
  8
FOREGROUND
 62
8
370
9
  6
CONTINUOUS
 10
210.8085021972655966
 20
10.1532211303710902
 30
0.0
 11
210.8789825439453125
 21
10.1532211303710902
 31
0.0
  0
LINE
  5
17A
100
AcDbEntity
100
AcDbLine
  8
FOREGROUND
 62
8
370
9
  6
CONTINUOUS
 10
196.2899017333984091
 20
10.24798583984375
 30
0.0
 11
196.3603820800780966
 21
10.24798583984375
 31
0.0
  0
LINE
  5
17B
100
AcDbEntity
100
AcDbLine
  8
FOREGROUND
 62
8
370
9
  6
CONTINUOUS
 10
197.3470916748046875
 20
10.24798583984375
 30
0.0
 11
197.9109191894530966
 21
10.24798583984375
 31
0.0
  0
LINE
  5
17C
100
AcDbEntity
100
AcDbLine
  8
FOREGROUND
 62
8
370
9
  6
CONTINUOUS
 10
198.9680938720703125
 20
10.24798583984375
 30
0.0
 11
199.03857421875
 21
10.24798583984375
 31
0.0
  0
LINE
  5
17D
100
AcDbEntity
100
AcDbLine
  8
FOREGROUND
 62
8
370
9
  6
CONTINUOUS
 10
203.2672729492188068
 20
10.24798583984375
 30
0.0
 11
203.4082336425780966
 21
10.24798583984375
 31
0.0
  0
LINE
  5
17E
100
AcDbEntity
100
AcDbLine
  8
FOREGROUND
 62
8
370
9
  6
CONTINUOUS
 10
208.2007904052734091
 20
10.24798583984375
 30
0.0
 11
208.3417510986328125
 21
10.24798583984375
 31
0.0
  0
LINE
  5
17F
100
AcDbEntity
100
AcDbLine
  8
FOREGROUND
 62
8
370
9
  6
CONTINUOUS
 10
209.8218078613280966
 20
10.24798583984375
 30
0.0
 11
209.9627685546875
 21
10.24798583984375
 31
0.0
  0
LINE
  5
180
100
AcDbEntity
100
AcDbLine
  8
FOREGROUND
 62
8
370
9
  6
CONTINUOUS
 10
210.8085021972655966
 20
10.24798583984375
 30
0.0
 11
210.8789825439453125
 21
10.24798583984375
 31
0.0
  0
LINE
  5
181
100
AcDbEntity
100
AcDbLine
  8
FOREGROUND
 62
8
370
9
  6
CONTINUOUS
 10
196.2194213867188068
 20
10.3427391052246094
 30
0.0
 11
196.3603820800780966
 21
10.3427391052246094
 31
0.0
  0
LINE
  5
182
100
AcDbEntity
100
AcDbLine
  8
FOREGROUND
 62
8
370
9
  6
CONTINUOUS
 10
197.3470916748046875
 20
10.3427391052246094
 30
0.0
 11
197.9109191894530966
 21
10.3427391052246094
 31
0.0
  0
LINE
  5
183
100
AcDbEntity
100
AcDbLine
  8
FOREGROUND
 62
8
370
9
  6
CONTINUOUS
 10
198.9680938720703125
 20
10.3427391052246094
 30
0.0
 11
199.1795349121094034
 21
10.3427391052246094
 31
0.0
  0
LINE
  5
184
100
AcDbEntity
100
AcDbLine
  8
FOREGROUND
 62
8
370
9
  6
CONTINUOUS
 10
203.2672729492188068
 20
10.3427391052246094
 30
0.0
 11
203.4082336425780966
 21
10.3427391052246094
 31
0.0
  0
LINE
  5
185
100
AcDbEntity
100
AcDbLine
  8
FOREGROUND
 62
8
370
9
  6
CONTINUOUS
 10
208.2007904052734091
 20
10.3427391052246094
 30
0.0
 11
208.4827117919921875
 21
10.3427391052246094
 31
0.0
  0
LINE
  5
186
100
AcDbEntity
100
AcDbLine
  8
FOREGROUND
 62
8
370
9
  6
CONTINUOUS
 10
209.8922882080078125
 20
10.3427391052246094
 30
0.0
 11
210.0332489013671875
 21
10.3427391052246094
 31
0.0
  0
LINE
  5
187
100
AcDbEntity
100
AcDbLine
  8
FOREGROUND
 62
8
370
9
  6
CONTINUOUS
 10
210.738037109375
 20
10.3427391052246094
 30
0.0
 11
210.8085021972655966
 21
10.3427391052246094
 31
0.0
  0
LINE
  5
188
100
AcDbEntity
100
AcDbLine
  8
FOREGROUND
 62
8
370
9
  6
CONTINUOUS
 10
196.2194213867188068
 20
10.4375038146972692
 30
0.0
 11
196.2899017333984091
 21
10.4375038146972692
 31
0.0
  0
LINE
  5
189
100
AcDbEntity
100
AcDbLine
  8
FOREGROUND
 62
8
370
9
  6
CONTINUOUS
 10
197.3470916748046875
 20
10.4375038146972692
 30
0.0
 11
197.9109191894530966
 21
10.4375038146972692
 31
0.0
  0
LINE
  5
18A
100
AcDbEntity
100
AcDbLine
  8
FOREGROUND
 62
8
370
9
  6
CONTINUOUS
 10
198.9680938720703125
 20
10.4375038146972692
 30
0.0
 11
199.1795349121094034
 21
10.4375038146972692
 31
0.0
  0
LINE
  5
18B
100
AcDbEntity
100
AcDbLine
  8
FOREGROUND
 62
8
370
9
  6
CONTINUOUS
 10
201.6462554931640909
 20
10.4375038146972692
 30
0.0
 11
201.7872161865234091
 21
10.4375038146972692
 31
0.0
  0
LINE
  5
18C
100
AcDbEntity
100
AcDbLine
  8
FOREGROUND
 62
8
370
9
  6
CONTINUOUS
 10
203.2672729492188068
 20
10.4375038146972692
 30
0.0
 11
203.4082336425780966
 21
10.4375038146972692
 31
0.0
  0
LINE
  5
18D
100
AcDbEntity
100
AcDbLine
  8
FOREGROUND
 62
8
370
9
  6
CONTINUOUS
 10
204.3949432373046875
 20
10.4375038146972692
 30
0.0
 11
204.4654083251953125
 21
10.4375038146972692
 31
0.0
  0
LINE
  5
18E
100
AcDbEntity
100
AcDbLine
  8
FOREGROUND
 62
8
370
9
  6
CONTINUOUS
 10
206.8616943359375
 20
10.4375038146972692
 30
0.0
 11
207.0026550292969034
 21
10.4375038146972692
 31
0.0
  0
LINE
  5
18F
100
AcDbEntity
100
AcDbLine
  8
FOREGROUND
 62
8
370
9
  6
CONTINUOUS
 10
208.2712707519530966
 20
10.4375038146972692
 30
0.0
 11
208.4827117919921875
 21
10.4375038146972692
 31
0.0
  0
LINE
  5
190
100
AcDbEntity
100
AcDbLine
  8
FOREGROUND
 62
8
370
9
  6
CONTINUOUS
 10
209.8922882080078125
 20
10.4375038146972692
 30
0.0
 11
210.1741943359375
 21
10.4375038146972692
 31
0.0
  0
LINE
  5
191
100
AcDbEntity
100
AcDbLine
  8
FOREGROUND
 62
8
370
9
  6
CONTINUOUS
 10
210.738037109375
 20
10.4375038146972692
 30
0.0
 11
210.738037109375
 21
10.4375038146972692
 31
0.0
  0
LINE
  5
192
100
AcDbEntity
100
AcDbLine
  8
FOREGROUND
 62
8
370
9
  6
CONTINUOUS
 10
196.2194213867188068
 20
10.5322570800781197
 30
0.0
 11
196.2899017333984091
 21
10.5322570800781197
 31
0.0
  0
LINE
  5
193
100
AcDbEntity
100
AcDbLine
  8
FOREGROUND
 62
8
370
9
  6
CONTINUOUS
 10
197.3470916748046875
 20
10.5322570800781197
 30
0.0
 11
197.9109191894530966
 21
10.5322570800781197
 31
0.0
  0
LINE
  5
194
100
AcDbEntity
100
AcDbLine
  8
FOREGROUND
 62
8
370
9
  6
CONTINUOUS
 10
198.9680938720703125
 20
10.5322570800781197
 30
0.0
 11
199.2500152587890909
 21
10.5322570800781197
 31
0.0
  0
LINE
  5
195
100
AcDbEntity
100
AcDbLine
  8
FOREGROUND
 62
8
370
9
  6
CONTINUOUS
 10
200.7300720214844034
 20
10.5322570800781197
 30
0.0
 11
200.8005523681640909
 21
10.5322570800781197
 31
0.0
  0
LINE
  5
196
100
AcDbEntity
100
AcDbLine
  8
FOREGROUND
 62
8
370
9
  6
CONTINUOUS
 10
201.6462554931640909
 20
10.5322570800781197
 30
0.0
 11
201.7167358398438068
 21
10.5322570800781197
 31
0.0
  0
LINE
  5
197
100
AcDbEntity
100
AcDbLine
  8
FOREGROUND
 62
8
370
9
  6
CONTINUOUS
 10
203.2672729492188068
 20
10.5322570800781197
 30
0.0
 11
203.4082336425780966
 21
10.5322570800781197
 31
0.0
  0
LINE
  5
198
100
AcDbEntity
100
AcDbLine
  8
FOREGROUND
 62
8
370
9
  6
CONTINUOUS
 10
204.3949432373046875
 20
10.5322570800781197
 30
0.0
 11
204.4654083251953125
 21
10.5322570800781197
 31
0.0
  0
LINE
  5
199
100
AcDbEntity
100
AcDbLine
  8
FOREGROUND
 62
8
370
9
  6
CONTINUOUS
 10
206.8616943359375
 20
10.5322570800781197
 30
0.0
 11
206.9321746826171875
 21
10.5322570800781197
 31
0.0
  0
LINE
  5
19A
100
AcDbEntity
100
AcDbLine
  8
FOREGROUND
 62
8
370
9
  6
CONTINUOUS
 10
208.3417510986328125
 20
10.5322570800781197
 30
0.0
 11
208.4827117919921875
 21
10.5322570800781197
 31
0.0
  0
LINE
  5
19B
100
AcDbEntity
100
AcDbLine
  8
FOREGROUND
 62
8
370
9
  6
CONTINUOUS
 10
209.8922882080078125
 20
10.5322570800781197
 30
0.0
 11
210.1037139892578125
 21
10.5322570800781197
 31
0.0
  0
LINE
  5
19C
100
AcDbEntity
100
AcDbLine
  8
FOREGROUND
 62
8
370
9
  6
CONTINUOUS
 10
210.6675567626953125
 20
10.5322570800781197
 30
0.0
 11
210.738037109375
 21
10.5322570800781197
 31
0.0
  0
LINE
  5
19D
100
AcDbEntity
100
AcDbLine
  8
FOREGROUND
 62
8
370
9
  6
CONTINUOUS
 10
196.1489410400390909
 20
10.6270103454589808
 30
0.0
 11
196.2899017333984091
 21
10.6270103454589808
 31
0.0
  0
LINE
  5
19E
100
AcDbEntity
100
AcDbLine
  8
FOREGROUND
 62
8
370
9
  6
CONTINUOUS
 10
197.3470916748046875
 20
10.6270103454589808
 30
0.0
 11
197.9109191894530966
 21
10.6270103454589808
 31
0.0
  0
LINE
  5
19F
100
AcDbEntity
100
AcDbLine
  8
FOREGROUND
 62
8
370
9
  6
CONTINUOUS
 10
199.1090545654296875
 20
10.6270103454589808
 30
0.0
 11
199.3909759521484091
 21
10.6270103454589808
 31
0.0
  0
LINE
  5
1A0
100
AcDbEntity
100
AcDbLine
  8
FOREGROUND
 62
8
370
9
  6
CONTINUOUS
 10
200.4481506347655966
 20
10.6270103454589808
 30
0.0
 11
200.589111328125
 21
10.6270103454589808
 31
0.0
  0
LINE
  5
1A1
100
AcDbEntity
100
AcDbLine
  8
FOREGROUND
 62
8
370
9
  6
CONTINUOUS
 10
200.7300720214844034
 20
10.6270103454589808
 30
0.0
 11
200.8005523681640909
 21
10.6270103454589808
 31
0.0
  0
LINE
  5
1A2
100
AcDbEntity
100
AcDbLine
  8
FOREGROUND
 62
8
370
9
  6
CONTINUOUS
 10
201.6462554931640909
 20
10.6270103454589808
 30
0.0
 11
201.7167358398438068
 21
10.6270103454589808
 31
0.0
  0
LINE
  5
1A3
100
AcDbEntity
100
AcDbLine
  8
FOREGROUND
 62
8
370
9
  6
CONTINUOUS
 10
203.2672729492188068
 20
10.6270103454589808
 30
0.0
 11
203.4082336425780966
 21
10.6270103454589808
 31
0.0
  0
LINE
  5
1A4
100
AcDbEntity
100
AcDbLine
  8
FOREGROUND
 62
8
370
9
  6
CONTINUOUS
 10
204.3949432373046875
 20
10.6270103454589808
 30
0.0
 11
204.4654083251953125
 21
10.6270103454589808
 31
0.0
  0
LINE
  5
1A5
100
AcDbEntity
100
AcDbLine
  8
FOREGROUND
 62
8
370
9
  6
CONTINUOUS
 10
206.8616943359375
 20
10.6270103454589808
 30
0.0
 11
206.9321746826171875
 21
10.6270103454589808
 31
0.0
  0
LINE
  5
1A6
100
AcDbEntity
100
AcDbLine
  8
FOREGROUND
 62
8
370
9
  6
CONTINUOUS
 10
207.9188842773438068
 20
10.6270103454589808
 30
0.0
 11
207.9188842773438068
 21
10.6270103454589808
 31
0.0
  0
LINE
  5
1A7
100
AcDbEntity
100
AcDbLine
  8
FOREGROUND
 62
8
370
9
  6
CONTINUOUS
 10
208.4122314453125
 20
10.6270103454589808
 30
0.0
 11
208.4827117919921875
 21
10.6270103454589808
 31
0.0
  0
LINE
  5
1A8
100
AcDbEntity
100
AcDbLine
  8
FOREGROUND
 62
8
370
9
  6
CONTINUOUS
 10
209.9627685546875
 20
10.6270103454589808
 30
0.0
 11
210.1037139892578125
 21
10.6270103454589808
 31
0.0
  0
LINE
  5
1A9
100
AcDbEntity
100
AcDbLine
  8
FOREGROUND
 62
8
370
9
  6
CONTINUOUS
 10
210.6675567626953125
 20
10.6270103454589808
 30
0.0
 11
210.738037109375
 21
10.6270103454589808
 31
0.0
  0
LINE
  5
1AA
100
AcDbEntity
100
AcDbLine
  8
FOREGROUND
 62
8
370
9
  6
CONTINUOUS
 10
196.0784606933594034
 20
10.7217750549316406
 30
0.0
 11
196.2194213867188068
 21
10.7217750549316406
 31
0.0
  0
LINE
  5
1AB
100
AcDbEntity
100
AcDbLine
  8
FOREGROUND
 62
8
370
9
  6
CONTINUOUS
 10
197.276611328125
 20
10.7217750549316406
 30
0.0
 11
197.9109191894530966
 21
10.7217750549316406
 31
0.0
  0
LINE
  5
1AC
100
AcDbEntity
100
AcDbLine
  8
FOREGROUND
 62
8
370
9
  6
CONTINUOUS
 10
199.1090545654296875
 20
10.7217750549316406
 30
0.0
 11
199.5319213867188068
 21
10.7217750549316406
 31
0.0
  0
LINE
  5
1AD
100
AcDbEntity
100
AcDbLine
  8
FOREGROUND
 62
8
370
9
  6
CONTINUOUS
 10
200.2367095947265909
 20
10.7217750549316406
 30
0.0
 11
200.4481506347655966
 21
10.7217750549316406
 31
0.0
  0
LINE
  5
1AE
100
AcDbEntity
100
AcDbLine
  8
FOREGROUND
 62
8
370
9
  6
CONTINUOUS
 10
200.7300720214844034
 20
10.7217750549316406
 30
0.0
 11
200.8005523681640909
 21
10.7217750549316406
 31
0.0
  0
LINE
  5
1AF
100
AcDbEntity
100
AcDbLine
  8
FOREGROUND
 62
8
370
9
  6
CONTINUOUS
 10
201.6462554931640909
 20
10.7217750549316406
 30
0.0
 11
201.7167358398438068
 21
10.7217750549316406
 31
0.0
  0
LINE
  5
1B0
100
AcDbEntity
100
AcDbLine
  8
FOREGROUND
 62
8
370
9
  6
CONTINUOUS
 10
203.2672729492188068
 20
10.7217750549316406
 30
0.0
 11
203.4082336425780966
 21
10.7217750549316406
 31
0.0
  0
LINE
  5
1B1
100
AcDbEntity
100
AcDbLine
  8
FOREGROUND
 62
8
370
9
  6
CONTINUOUS
 10
204.3949432373046875
 20
10.7217750549316406
 30
0.0
 11
204.4654083251953125
 21
10.7217750549316406
 31
0.0
  0
LINE
  5
1B2
100
AcDbEntity
100
AcDbLine
  8
FOREGROUND
 62
8
370
9
  6
CONTINUOUS
 10
206.8616943359375
 20
10.7217750549316406
 30
0.0
 11
206.9321746826171875
 21
10.7217750549316406
 31
0.0
  0
LINE
  5
1B3
100
AcDbEntity
100
AcDbLine
  8
FOREGROUND
 62
8
370
9
  6
CONTINUOUS
 10
208.4122314453125
 20
10.7217750549316406
 30
0.0
 11
208.4827117919921875
 21
10.7217750549316406
 31
0.0
  0
LINE
  5
1B4
100
AcDbEntity
100
AcDbLine
  8
FOREGROUND
 62
8
370
9
  6
CONTINUOUS
 10
210.0332489013671875
 20
10.7217750549316406
 30
0.0
 11
210.1037139892578125
 21
10.7217750549316406
 31
0.0
  0
LINE
  5
1B5
100
AcDbEntity
100
AcDbLine
  8
FOREGROUND
 62
8
370
9
  6
CONTINUOUS
 10
210.5970764160155966
 20
10.7217750549316406
 30
0.0
 11
210.6675567626953125
 21
10.7217750549316406
 31
0.0
  0
LINE
  5
1B6
100
AcDbEntity
100
AcDbLine
  8
FOREGROUND
 62
8
370
9
  6
CONTINUOUS
 10
196.0079803466796875
 20
10.8165283203125
 30
0.0
 11
196.1489410400390909
 21
10.8165283203125
 31
0.0
  0
LINE
  5
1B7
100
AcDbEntity
100
AcDbLine
  8
FOREGROUND
 62
8
370
9
  6
CONTINUOUS
 10
197.2061309814453125
 20
10.8165283203125
 30
0.0
 11
197.8404388427734091
 21
10.8165283203125
 31
0.0
  0
LINE
  5
1B8
100
AcDbEntity
100
AcDbLine
  8
FOREGROUND
 62
8
370
9
  6
CONTINUOUS
 10
199.2500152587890909
 20
10.8165283203125
 30
0.0
 11
200.2367095947265909
 21
10.8165283203125
 31
0.0
  0
LINE
  5
1B9
100
AcDbEntity
100
AcDbLine
  8
FOREGROUND
 62
8
370
9
  6
CONTINUOUS
 10
200.7300720214844034
 20
10.8165283203125
 30
0.0
 11
200.8005523681640909
 21
10.8165283203125
 31
0.0
  0
LINE
  5
1BA
100
AcDbEntity
100
AcDbLine
  8
FOREGROUND
 62
8
370
9
  6
CONTINUOUS
 10
201.6462554931640909
 20
10.8165283203125
 30
0.0
 11
201.7167358398438068
 21
10.8165283203125
 31
0.0
  0
LINE
  5
1BB
100
AcDbEntity
100
AcDbLine
  8
FOREGROUND
 62
8
370
9
  6
CONTINUOUS
 10
203.2672729492188068
 20
10.8165283203125
 30
0.0
 11
203.4082336425780966
 21
10.8165283203125
 31
0.0
  0
LINE
  5
1BC
100
AcDbEntity
100
AcDbLine
  8
FOREGROUND
 62
8
370
9
  6
CONTINUOUS
 10
204.3949432373046875
 20
10.8165283203125
 30
0.0
 11
204.4654083251953125
 21
10.8165283203125
 31
0.0
  0
LINE
  5
1BD
100
AcDbEntity
100
AcDbLine
  8
FOREGROUND
 62
8
370
9
  6
CONTINUOUS
 10
206.8616943359375
 20
10.8165283203125
 30
0.0
 11
206.9321746826171875
 21
10.8165283203125
 31
0.0
  0
LINE
  5
1BE
100
AcDbEntity
100
AcDbLine
  8
FOREGROUND
 62
8
370
9
  6
CONTINUOUS
 10
207.9188842773438068
 20
10.8165283203125
 30
0.0
 11
207.9188842773438068
 21
10.8165283203125
 31
0.0
  0
LINE
  5
1BF
100
AcDbEntity
100
AcDbLine
  8
FOREGROUND
 62
8
370
9
  6
CONTINUOUS
 10
208.4122314453125
 20
10.8165283203125
 30
0.0
 11
208.4827117919921875
 21
10.8165283203125
 31
0.0
  0
LINE
  5
1C0
100
AcDbEntity
100
AcDbLine
  8
FOREGROUND
 62
8
370
9
  6
CONTINUOUS
 10
210.5265960693359091
 20
10.8165283203125
 30
0.0
 11
210.5970764160155966
 21
10.8165283203125
 31
0.0
  0
LINE
  5
1C1
100
AcDbEntity
100
AcDbLine
  8
FOREGROUND
 62
8
370
9
  6
CONTINUOUS
 10
195.9375152587890909
 20
10.9112930297851598
 30
0.0
 11
196.0784606933594034
 21
10.9112930297851598
 31
0.0
  0
LINE
  5
1C2
100
AcDbEntity
100
AcDbLine
  8
FOREGROUND
 62
8
370
9
  6
CONTINUOUS
 10
197.2061309814453125
 20
10.9112930297851598
 30
0.0
 11
197.8404388427734091
 21
10.9112930297851598
 31
0.0
  0
LINE
  5
1C3
100
AcDbEntity
100
AcDbLine
  8
FOREGROUND
 62
8
370
9
  6
CONTINUOUS
 10
199.3909759521484091
 20
10.9112930297851598
 30
0.0
 11
200.0252838134765909
 21
10.9112930297851598
 31
0.0
  0
LINE
  5
1C4
100
AcDbEntity
100
AcDbLine
  8
FOREGROUND
 62
8
370
9
  6
CONTINUOUS
 10
200.7300720214844034
 20
10.9112930297851598
 30
0.0
 11
200.8005523681640909
 21
10.9112930297851598
 31
0.0
  0
LINE
  5
1C5
100
AcDbEntity
100
AcDbLine
  8
FOREGROUND
 62
8
370
9
  6
CONTINUOUS
 10
201.6462554931640909
 20
10.9112930297851598
 30
0.0
 11
201.7167358398438068
 21
10.9112930297851598
 31
0.0
  0
LINE
  5
1C6
100
AcDbEntity
100
AcDbLine
  8
FOREGROUND
 62
8
370
9
  6
CONTINUOUS
 10
203.2672729492188068
 20
10.9112930297851598
 30
0.0
 11
203.4082336425780966
 21
10.9112930297851598
 31
0.0
  0
LINE
  5
1C7
100
AcDbEntity
100
AcDbLine
  8
FOREGROUND
 62
8
370
9
  6
CONTINUOUS
 10
204.3949432373046875
 20
10.9112930297851598
 30
0.0
 11
205.9454650878905966
 21
10.9112930297851598
 31
0.0
  0
LINE
  5
1C8
100
AcDbEntity
100
AcDbLine
  8
FOREGROUND
 62
8
370
9
  6
CONTINUOUS
 10
206.8616943359375
 20
10.9112930297851598
 30
0.0
 11
207.8484039306640909
 21
10.9112930297851598
 31
0.0
  0
LINE
  5
1C9
100
AcDbEntity
100
AcDbLine
  8
FOREGROUND
 62
8
370
9
  6
CONTINUOUS
 10
208.4122314453125
 20
10.9112930297851598
 30
0.0
 11
208.4827117919921875
 21
10.9112930297851598
 31
0.0
  0
LINE
  5
1CA
100
AcDbEntity
100
AcDbLine
  8
FOREGROUND
 62
8
370
9
  6
CONTINUOUS
 10
210.4561157226561932
 20
10.9112930297851598
 30
0.0
 11
210.5970764160155966
 21
10.9112930297851598
 31
0.0
  0
LINE
  5
1CB
100
AcDbEntity
100
AcDbLine
  8
FOREGROUND
 62
8
370
9
  6
CONTINUOUS
 10
195.8670349121094034
 20
11.0060462951660192
 30
0.0
 11
196.0079803466796875
 21
11.0060462951660192
 31
0.0
  0
LINE
  5
1CC
100
AcDbEntity
100
AcDbLine
  8
FOREGROUND
 62
8
370
9
  6
CONTINUOUS
 10
197.2061309814453125
 20
11.0060462951660192
 30
0.0
 11
197.7699584960938068
 21
11.0060462951660192
 31
0.0
  0
LINE
  5
1CD
100
AcDbEntity
100
AcDbLine
  8
FOREGROUND
 62
8
370
9
  6
CONTINUOUS
 10
200.7300720214844034
 20
11.0060462951660192
 30
0.0
 11
200.8005523681640909
 21
11.0060462951660192
 31
0.0
  0
LINE
  5
1CE
100
AcDbEntity
100
AcDbLine
  8
FOREGROUND
 62
8
370
9
  6
CONTINUOUS
 10
201.6462554931640909
 20
11.0060462951660192
 30
0.0
 11
201.7167358398438068
 21
11.0060462951660192
 31
0.0
  0
LINE
  5
1CF
100
AcDbEntity
100
AcDbLine
  8
FOREGROUND
 62
8
370
9
  6
CONTINUOUS
 10
203.3377532958984091
 20
11.0060462951660192
 30
0.0
 11
203.4082336425780966
 21
11.0060462951660192
 31
0.0
  0
LINE
  5
1D0
100
AcDbEntity
100
AcDbLine
  8
FOREGROUND
 62
8
370
9
  6
CONTINUOUS
 10
204.3949432373046875
 20
11.0060462951660192
 30
0.0
 11
204.4654083251953125
 21
11.0060462951660192
 31
0.0
  0
LINE
  5
1D1
100
AcDbEntity
100
AcDbLine
  8
FOREGROUND
 62
8
370
9
  6
CONTINUOUS
 10
204.6063690185546875
 20
11.0060462951660192
 30
0.0
 11
204.6768493652344034
 21
11.0060462951660192
 31
0.0
  0
LINE
  5
1D2
100
AcDbEntity
100
AcDbLine
  8
FOREGROUND
 62
8
370
9
  6
CONTINUOUS
 10
204.8178100585938068
 20
11.0060462951660192
 30
0.0
 11
205.9454650878905966
 21
11.0060462951660192
 31
0.0
  0
LINE
  5
1D3
100
AcDbEntity
100
AcDbLine
  8
FOREGROUND
 62
8
370
9
  6
CONTINUOUS
 10
206.8616943359375
 20
11.0060462951660192
 30
0.0
 11
207.636962890625
 21
11.0060462951660192
 31
0.0
  0
LINE
  5
1D4
100
AcDbEntity
100
AcDbLine
  8
FOREGROUND
 62
8
370
9
  6
CONTINUOUS
 10
207.7779235839844034
 20
11.0060462951660192
 30
0.0
 11
207.7779235839844034
 21
11.0060462951660192
 31
0.0
  0
LINE
  5
1D5
100
AcDbEntity
100
AcDbLine
  8
FOREGROUND
 62
8
370
9
  6
CONTINUOUS
 10
208.3417510986328125
 20
11.0060462951660192
 30
0.0
 11
208.4122314453125
 21
11.0060462951660192
 31
0.0
  0
LINE
  5
1D6
100
AcDbEntity
100
AcDbLine
  8
FOREGROUND
 62
8
370
9
  6
CONTINUOUS
 10
210.5265960693359091
 20
11.0060462951660192
 30
0.0
 11
210.5970764160155966
 21
11.0060462951660192
 31
0.0
  0
LINE
  5
1D7
100
AcDbEntity
100
AcDbLine
  8
FOREGROUND
 62
8
370
9
  6
CONTINUOUS
 10
195.7965545654296875
 20
11.1008071899414098
 30
0.0
 11
195.8670349121094034
 21
11.1008071899414098
 31
0.0
  0
LINE
  5
1D8
100
AcDbEntity
100
AcDbLine
  8
FOREGROUND
 62
8
370
9
  6
CONTINUOUS
 10
197.1356506347655966
 20
11.1008071899414098
 30
0.0
 11
197.7699584960938068
 21
11.1008071899414098
 31
0.0
  0
LINE
  5
1D9
100
AcDbEntity
100
AcDbLine
  8
FOREGROUND
 62
8
370
9
  6
CONTINUOUS
 10
201.6462554931640909
 20
11.1008071899414098
 30
0.0
 11
201.7167358398438068
 21
11.1008071899414098
 31
0.0
  0
LINE
  5
1DA
100
AcDbEntity
100
AcDbLine
  8
FOREGROUND
 62
8
370
9
  6
CONTINUOUS
 10
203.2672729492188068
 20
11.1008071899414098
 30
0.0
 11
203.4082336425780966
 21
11.1008071899414098
 31
0.0
  0
LINE
  5
1DB
100
AcDbEntity
100
AcDbLine
  8
FOREGROUND
 62
8
370
9
  6
CONTINUOUS
 10
205.8045196533203125
 20
11.1008071899414098
 30
0.0
 11
205.9454650878905966
 21
11.1008071899414098
 31
0.0
  0
LINE
  5
1DC
100
AcDbEntity
100
AcDbLine
  8
FOREGROUND
 62
8
370
9
  6
CONTINUOUS
 10
210.4561157226561932
 20
11.1008071899414098
 30
0.0
 11
210.5265960693359091
 21
11.1008071899414098
 31
0.0
  0
LINE
  5
1DD
100
AcDbEntity
100
AcDbLine
  8
FOREGROUND
 62
8
370
9
  6
CONTINUOUS
 10
195.6555938720703125
 20
11.1955642700195295
 30
0.0
 11
195.7965545654296875
 21
11.1955642700195295
 31
0.0
  0
LINE
  5
1DE
100
AcDbEntity
100
AcDbLine
  8
FOREGROUND
 62
8
370
9
  6
CONTINUOUS
 10
197.0651702880859091
 20
11.1955642700195295
 30
0.0
 11
197.6994781494140909
 21
11.1955642700195295
 31
0.0
  0
LINE
  5
1DF
100
AcDbEntity
100
AcDbLine
  8
FOREGROUND
 62
8
370
9
  6
CONTINUOUS
 10
201.6462554931640909
 20
11.1955642700195295
 30
0.0
 11
201.7167358398438068
 21
11.1955642700195295
 31
0.0
  0
LINE
  5
1E0
100
AcDbEntity
100
AcDbLine
  8
FOREGROUND
 62
8
370
9
  6
CONTINUOUS
 10
203.2672729492188068
 20
11.1955642700195295
 30
0.0
 11
203.4082336425780966
 21
11.1955642700195295
 31
0.0
  0
LINE
  5
1E1
100
AcDbEntity
100
AcDbLine
  8
FOREGROUND
 62
8
370
9
  6
CONTINUOUS
 10
205.8045196533203125
 20
11.1955642700195295
 30
0.0
 11
205.9454650878905966
 21
11.1955642700195295
 31
0.0
  0
LINE
  5
1E2
100
AcDbEntity
100
AcDbLine
  8
FOREGROUND
 62
8
370
9
  6
CONTINUOUS
 10
210.4561157226561932
 20
11.1955642700195295
 30
0.0
 11
210.4561157226561932
 21
11.1955642700195295
 31
0.0
  0
LINE
  5
1E3
100
AcDbEntity
100
AcDbLine
  8
FOREGROUND
 62
8
370
9
  6
CONTINUOUS
 10
195.4441528320311932
 20
11.2903251647949201
 30
0.0
 11
195.5851135253905966
 21
11.2903251647949201
 31
0.0
  0
LINE
  5
1E4
100
AcDbEntity
100
AcDbLine
  8
FOREGROUND
 62
8
370
9
  6
CONTINUOUS
 10
196.9946899414061932
 20
11.2903251647949201
 30
0.0
 11
197.6289978027344034
 21
11.2903251647949201
 31
0.0
  0
LINE
  5
1E5
100
AcDbEntity
100
AcDbLine
  8
FOREGROUND
 62
8
370
9
  6
CONTINUOUS
 10
201.6462554931640909
 20
11.2903251647949201
 30
0.0
 11
201.6462554931640909
 21
11.2903251647949201
 31
0.0
  0
LINE
  5
1E6
100
AcDbEntity
100
AcDbLine
  8
FOREGROUND
 62
8
370
9
  6
CONTINUOUS
 10
203.2672729492188068
 20
11.2903251647949201
 30
0.0
 11
203.3377532958984091
 21
11.2903251647949201
 31
0.0
  0
LINE
  5
1E7
100
AcDbEntity
100
AcDbLine
  8
FOREGROUND
 62
8
370
9
  6
CONTINUOUS
 10
205.8045196533203125
 20
11.2903251647949201
 30
0.0
 11
205.8045196533203125
 21
11.2903251647949201
 31
0.0
  0
LINE
  5
1E8
100
AcDbEntity
100
AcDbLine
  8
FOREGROUND
 62
8
370
9
  6
CONTINUOUS
 10
210.3856353759765909
 20
11.2903251647949201
 30
0.0
 11
210.3856353759765909
 21
11.2903251647949201
 31
0.0
  0
LINE
  5
1E9
100
AcDbEntity
100
AcDbLine
  8
FOREGROUND
 62
8
370
9
  6
CONTINUOUS
 10
195.3031921386719034
 20
11.3850784301757795
 30
0.0
 11
195.5146331787109091
 21
11.3850784301757795
 31
0.0
  0
LINE
  5
1EA
100
AcDbEntity
100
AcDbLine
  8
FOREGROUND
 62
8
370
9
  6
CONTINUOUS
 10
196.9946899414061932
 20
11.3850784301757795
 30
0.0
 11
197.6289978027344034
 21
11.3850784301757795
 31
0.0
  0
LINE
  5
1EB
100
AcDbEntity
100
AcDbLine
  8
FOREGROUND
 62
8
370
9
  6
CONTINUOUS
 10
194.9508056640625
 20
11.4798431396484393
 30
0.0
 11
195.2327270507811932
 21
11.4798431396484393
 31
0.0
  0
LINE
  5
1EC
100
AcDbEntity
100
AcDbLine
  8
FOREGROUND
 62
8
370
9
  6
CONTINUOUS
 10
196.8537292480469034
 20
11.4798431396484393
 30
0.0
 11
197.5585174560546875
 21
11.4798431396484393
 31
0.0
  0
LINE
  5
1ED
100
AcDbEntity
100
AcDbLine
  8
FOREGROUND
 62
8
370
9
  6
CONTINUOUS
 10
194.6688842773438068
 20
11.5745964050293004
 30
0.0
 11
195.0212860107421875
 21
11.5745964050293004
 31
0.0
  0
LINE
  5
1EE
100
AcDbEntity
100
AcDbLine
  8
FOREGROUND
 62
8
370
9
  6
CONTINUOUS
 10
196.8537292480469034
 20
11.5745964050293004
 30
0.0
 11
197.5585174560546875
 21
11.5745964050293004
 31
0.0
  0
LINE
  5
1EF
100
AcDbEntity
100
AcDbLine
  8
FOREGROUND
 62
8
370
9
  6
CONTINUOUS
 10
193.6821899414061932
 20
11.6693496704101598
 30
0.0
 11
194.4574584960938068
 21
11.6693496704101598
 31
0.0
  0
LINE
  5
1F0
100
AcDbEntity
100
AcDbLine
  8
FOREGROUND
 62
8
370
9
  6
CONTINUOUS
 10
196.7127685546875
 20
11.6693496704101598
 30
0.0
 11
197.4175567626953125
 21
11.6693496704101598
 31
0.0
  0
LINE
  5
1F1
100
AcDbEntity
100
AcDbLine
  8
FOREGROUND
 62
8
370
9
  6
CONTINUOUS
 10
192.9774017333984091
 20
11.7641143798828107
 30
0.0
 11
193.7526702880859091
 21
11.7641143798828107
 31
0.0
  0
LINE
  5
1F2
100
AcDbEntity
100
AcDbLine
  8
FOREGROUND
 62
8
370
9
  6
CONTINUOUS
 10
196.7127685546875
 20
11.7641143798828107
 30
0.0
 11
197.3470916748046875
 21
11.7641143798828107
 31
0.0
  0
LINE
  5
1F3
100
AcDbEntity
100
AcDbLine
  8
FOREGROUND
 62
8
370
9
  6
CONTINUOUS
 10
191.7792510986328125
 20
11.8588676452636701
 30
0.0
 11
192.5545196533203125
 21
11.8588676452636701
 31
0.0
  0
LINE
  5
1F4
100
AcDbEntity
100
AcDbLine
  8
FOREGROUND
 62
8
370
9
  6
CONTINUOUS
 10
196.5013427734375
 20
11.8588676452636701
 30
0.0
 11
197.2061309814453125
 21
11.8588676452636701
 31
0.0
  0
LINE
  5
1F5
100
AcDbEntity
100
AcDbLine
  8
FOREGROUND
 62
8
370
9
  6
CONTINUOUS
 10
191.4268646240234091
 20
11.9536323547363299
 30
0.0
 11
191.7792510986328125
 21
11.9536323547363299
 31
0.0
  0
LINE
  5
1F6
100
AcDbEntity
100
AcDbLine
  8
FOREGROUND
 62
8
370
9
  6
CONTINUOUS
 10
196.5013427734375
 20
11.9536323547363299
 30
0.0
 11
197.1356506347655966
 21
11.9536323547363299
 31
0.0
  0
LINE
  5
1F7
100
AcDbEntity
100
AcDbLine
  8
FOREGROUND
 62
8
370
9
  6
CONTINUOUS
 10
191.1449432373046875
 20
12.0483856201171893
 30
0.0
 11
191.2859039306640909
 21
12.0483856201171893
 31
0.0
  0
LINE
  5
1F8
100
AcDbEntity
100
AcDbLine
  8
FOREGROUND
 62
8
370
9
  6
CONTINUOUS
 10
196.3603820800780966
 20
12.0483856201171893
 30
0.0
 11
196.9242095947265909
 21
12.0483856201171893
 31
0.0
  0
LINE
  5
1F9
100
AcDbEntity
100
AcDbLine
  8
FOREGROUND
 62
8
370
9
  6
CONTINUOUS
 10
190.9335174560546875
 20
12.1431465148925799
 30
0.0
 11
191.0039978027344034
 21
12.1431465148925799
 31
0.0
  0
LINE
  5
1FA
100
AcDbEntity
100
AcDbLine
  8
FOREGROUND
 62
8
370
9
  6
CONTINUOUS
 10
196.0784606933594034
 20
12.1431465148925799
 30
0.0
 11
196.7832489013671875
 21
12.1431465148925799
 31
0.0
  0
LINE
  5
1FB
100
AcDbEntity
100
AcDbLine
  8
FOREGROUND
 62
8
370
9
  6
CONTINUOUS
 10
190.863037109375
 20
12.2379035949706996
 30
0.0
 11
190.9335174560546875
 21
12.2379035949706996
 31
0.0
  0
LINE
  5
1FC
100
AcDbEntity
100
AcDbLine
  8
FOREGROUND
 62
8
370
9
  6
CONTINUOUS
 10
196.0079803466796875
 20
12.2379035949706996
 30
0.0
 11
196.6423034667969034
 21
12.2379035949706996
 31
0.0
  0
LINE
  5
1FD
100
AcDbEntity
100
AcDbLine
  8
FOREGROUND
 62
8
370
9
  6
CONTINUOUS
 10
190.7220764160155966
 20
12.3326644897460902
 30
0.0
 11
190.7220764160155966
 21
12.3326644897460902
 31
0.0
  0
LINE
  5
1FE
100
AcDbEntity
100
AcDbLine
  8
FOREGROUND
 62
8
370
9
  6
CONTINUOUS
 10
195.7965545654296875
 20
12.3326644897460902
 30
0.0
 11
196.3603820800780966
 21
12.3326644897460902
 31
0.0
  0
LINE
  5
1FF
100
AcDbEntity
100
AcDbLine
  8
FOREGROUND
 62
8
370
9
  6
CONTINUOUS
 10
190.6515960693359091
 20
12.4274215698242205
 30
0.0
 11
190.7220764160155966
 21
12.4274215698242205
 31
0.0
  0
LINE
  5
200
100
AcDbEntity
100
AcDbLine
  8
FOREGROUND
 62
8
370
9
  6
CONTINUOUS
 10
195.5851135253905966
 20
12.4274215698242205
 30
0.0
 11
196.1489410400390909
 21
12.4274215698242205
 31
0.0
  0
LINE
  5
201
100
AcDbEntity
100
AcDbLine
  8
FOREGROUND
 62
8
370
9
  6
CONTINUOUS
 10
190.5106353759765909
 20
12.5221748352050799
 30
0.0
 11
190.5811157226561932
 21
12.5221748352050799
 31
0.0
  0
LINE
  5
202
100
AcDbEntity
100
AcDbLine
  8
FOREGROUND
 62
8
370
9
  6
CONTINUOUS
 10
195.3031921386719034
 20
12.5221748352050799
 30
0.0
 11
195.7965545654296875
 21
12.5221748352050799
 31
0.0
  0
LINE
  5
203
100
AcDbEntity
100
AcDbLine
  8
FOREGROUND
 62
8
370
9
  6
CONTINUOUS
 10
190.4401550292969034
 20
12.6169357299804705
 30
0.0
 11
190.5106353759765909
 21
12.6169357299804705
 31
0.0
  0
LINE
  5
204
100
AcDbEntity
100
AcDbLine
  8
FOREGROUND
 62
8
370
9
  6
CONTINUOUS
 10
194.9508056640625
 20
12.6169357299804705
 30
0.0
 11
195.5146331787109091
 21
12.6169357299804705
 31
0.0
  0
LINE
  5
205
100
AcDbEntity
100
AcDbLine
  8
FOREGROUND
 62
8
370
9
  6
CONTINUOUS
 10
190.3696746826171875
 20
12.7116928100585902
 30
0.0
 11
190.3696746826171875
 21
12.7116928100585902
 31
0.0
  0
LINE
  5
206
100
AcDbEntity
100
AcDbLine
  8
FOREGROUND
 62
8
370
9
  6
CONTINUOUS
 10
193.9640960693359091
 20
12.7116928100585902
 30
0.0
 11
194.7393646240234091
 21
12.7116928100585902
 31
0.0
  0
LINE
  5
207
100
AcDbEntity
100
AcDbLine
  8
FOREGROUND
 62
8
370
9
  6
CONTINUOUS
 10
190.2992095947265909
 20
12.8064537048339808
 30
0.0
 11
190.3696746826171875
 21
12.8064537048339808
 31
0.0
  0
LINE
  5
208
100
AcDbEntity
100
AcDbLine
  8
FOREGROUND
 62
8
370
9
  6
CONTINUOUS
 10
192.9774017333984091
 20
12.8064537048339808
 30
0.0
 11
193.7526702880859091
 21
12.8064537048339808
 31
0.0
  0
LINE
  5
209
100
AcDbEntity
100
AcDbLine
  8
FOREGROUND
 62
8
370
9
  6
CONTINUOUS
 10
190.2992095947265909
 20
12.9012069702148402
 30
0.0
 11
190.2992095947265909
 21
12.9012069702148402
 31
0.0
  0
LINE
  5
20A
100
AcDbEntity
100
AcDbLine
  8
FOREGROUND
 62
8
370
9
  6
CONTINUOUS
 10
192.3430938720703125
 20
12.9012069702148402
 30
0.0
 11
193.1183624267578125
 21
12.9012069702148402
 31
0.0
  0
LINE
  5
20B
100
AcDbEntity
100
AcDbLine
  8
FOREGROUND
 62
8
370
9
  6
CONTINUOUS
 10
190.1582489013671875
 20
12.9959716796875
 30
0.0
 11
190.2287292480469034
 21
12.9959716796875
 31
0.0
  0
LINE
  5
20C
100
AcDbEntity
100
AcDbLine
  8
FOREGROUND
 62
8
370
9
  6
CONTINUOUS
 10
191.7792510986328125
 20
12.9959716796875
 30
0.0
 11
192.4840393066405966
 21
12.9959716796875
 31
0.0
  0
LINE
  5
20D
100
AcDbEntity
100
AcDbLine
  8
FOREGROUND
 62
8
370
9
  6
CONTINUOUS
 10
190.1582489013671875
 20
13.0907249450683594
 30
0.0
 11
190.2287292480469034
 21
13.0907249450683594
 31
0.0
  0
LINE
  5
20E
100
AcDbEntity
100
AcDbLine
  8
FOREGROUND
 62
8
370
9
  6
CONTINUOUS
 10
191.5678253173828125
 20
13.0907249450683594
 30
0.0
 11
192.2726135253905966
 21
13.0907249450683594
 31
0.0
  0
LINE
  5
20F
100
AcDbEntity
100
AcDbLine
  8
FOREGROUND
 62
8
370
9
  6
CONTINUOUS
 10
190.1582489013671875
 20
13.1854896545410192
 30
0.0
 11
190.1582489013671875
 21
13.1854896545410192
 31
0.0
  0
LINE
  5
210
100
AcDbEntity
100
AcDbLine
  8
FOREGROUND
 62
8
370
9
  6
CONTINUOUS
 10
191.4268646240234091
 20
13.1854896545410192
 30
0.0
 11
192.1316528320311932
 21
13.1854896545410192
 31
0.0
  0
LINE
  5
211
100
AcDbEntity
100
AcDbLine
  8
FOREGROUND
 62
8
370
9
  6
CONTINUOUS
 10
190.0877685546875
 20
13.2802429199218803
 30
0.0
 11
190.0877685546875
 21
13.2802429199218803
 31
0.0
  0
LINE
  5
212
100
AcDbEntity
100
AcDbLine
  8
FOREGROUND
 62
8
370
9
  6
CONTINUOUS
 10
191.2859039306640909
 20
13.2802429199218803
 30
0.0
 11
191.9906921386719034
 21
13.2802429199218803
 31
0.0
  0
LINE
  5
213
100
AcDbEntity
100
AcDbLine
  8
FOREGROUND
 62
8
370
9
  6
CONTINUOUS
 10
190.0877685546875
 20
13.3749961853027308
 30
0.0
 11
190.0877685546875
 21
13.3749961853027308
 31
0.0
  0
LINE
  5
214
100
AcDbEntity
100
AcDbLine
  8
FOREGROUND
 62
8
370
9
  6
CONTINUOUS
 10
191.2154235839844034
 20
13.3749961853027308
 30
0.0
 11
191.8497314453125
 21
13.3749961853027308
 31
0.0
  0
LINE
  5
215
100
AcDbEntity
100
AcDbLine
  8
FOREGROUND
 62
8
370
9
  6
CONTINUOUS
 10
190.0877685546875
 20
13.4697608947753906
 30
0.0
 11
190.0877685546875
 21
13.4697608947753906
 31
0.0
  0
LINE
  5
216
100
AcDbEntity
100
AcDbLine
  8
FOREGROUND
 62
8
370
9
  6
CONTINUOUS
 10
191.074462890625
 20
13.4697608947753906
 30
0.0
 11
191.7792510986328125
 21
13.4697608947753906
 31
0.0
  0
LINE
  5
217
100
AcDbEntity
100
AcDbLine
  8
FOREGROUND
 62
8
370
9
  6
CONTINUOUS
 10
190.0877685546875
 20
13.56451416015625
 30
0.0
 11
190.0877685546875
 21
13.56451416015625
 31
0.0
  0
LINE
  5
218
100
AcDbEntity
100
AcDbLine
  8
FOREGROUND
 62
8
370
9
  6
CONTINUOUS
 10
191.074462890625
 20
13.56451416015625
 30
0.0
 11
191.7792510986328125
 21
13.56451416015625
 31
0.0
  0
LINE
  5
219
100
AcDbEntity
100
AcDbLine
  8
FOREGROUND
 62
8
370
9
  6
CONTINUOUS
 10
190.0172882080078125
 20
13.6592750549316406
 30
0.0
 11
190.0172882080078125
 21
13.6592750549316406
 31
0.0
  0
LINE
  5
21A
100
AcDbEntity
100
AcDbLine
  8
FOREGROUND
 62
8
370
9
  6
CONTINUOUS
 10
191.0039978027344034
 20
13.6592750549316406
 30
0.0
 11
191.7087860107421875
 21
13.6592750549316406
 31
0.0
  0
LINE
  5
21B
100
AcDbEntity
100
AcDbLine
  8
FOREGROUND
 62
8
370
9
  6
CONTINUOUS
 10
190.0172882080078125
 20
13.7540321350097692
 30
0.0
 11
190.0172882080078125
 21
13.7540321350097692
 31
0.0
  0
LINE
  5
21C
100
AcDbEntity
100
AcDbLine
  8
FOREGROUND
 62
8
370
9
  6
CONTINUOUS
 10
190.9335174560546875
 20
13.7540321350097692
 30
0.0
 11
191.7087860107421875
 21
13.7540321350097692
 31
0.0
  0
LINE
  5
21D
100
AcDbEntity
100
AcDbLine
  8
FOREGROUND
 62
8
370
9
  6
CONTINUOUS
 10
190.0172882080078125
 20
13.8487854003906197
 30
0.0
 11
190.0172882080078125
 21
13.8487854003906197
 31
0.0
  0
LINE
  5
21E
100
AcDbEntity
100
AcDbLine
  8
FOREGROUND
 62
8
370
9
  6
CONTINUOUS
 10
190.9335174560546875
 20
13.8487854003906197
 30
0.0
 11
191.6383056640625
 21
13.8487854003906197
 31
0.0
  0
LINE
  5
21F
100
AcDbEntity
100
AcDbLine
  8
FOREGROUND
 62
8
370
9
  6
CONTINUOUS
 10
190.0172882080078125
 20
13.9435501098632795
 30
0.0
 11
190.0172882080078125
 21
13.9435501098632795
 31
0.0
  0
LINE
  5
220
100
AcDbEntity
100
AcDbLine
  8
FOREGROUND
 62
8
370
9
  6
CONTINUOUS
 10
190.9335174560546875
 20
13.9435501098632795
 30
0.0
 11
191.6383056640625
 21
13.9435501098632795
 31
0.0
  0
LINE
  5
221
100
AcDbEntity
100
AcDbLine
  8
FOREGROUND
 62
8
370
9
  6
CONTINUOUS
 10
190.0172882080078125
 20
14.0383033752441406
 30
0.0
 11
190.0172882080078125
 21
14.0383033752441406
 31
0.0
  0
LINE
  5
222
100
AcDbEntity
100
AcDbLine
  8
FOREGROUND
 62
8
370
9
  6
CONTINUOUS
 10
190.9335174560546875
 20
14.0383033752441406
 30
0.0
 11
191.6383056640625
 21
14.0383033752441406
 31
0.0
  0
LINE
  5
223
100
AcDbEntity
100
AcDbLine
  8
FOREGROUND
 62
8
370
9
  6
CONTINUOUS
 10
190.0172882080078125
 20
14.1330642700195295
 30
0.0
 11
190.0172882080078125
 21
14.1330642700195295
 31
0.0
  0
LINE
  5
224
100
AcDbEntity
100
AcDbLine
  8
FOREGROUND
 62
8
370
9
  6
CONTINUOUS
 10
190.9335174560546875
 20
14.1330642700195295
 30
0.0
 11
191.6383056640625
 21
14.1330642700195295
 31
0.0
  0
LINE
  5
225
100
AcDbEntity
100
AcDbLine
  8
FOREGROUND
 62
8
370
9
  6
CONTINUOUS
 10
190.0172882080078125
 20
14.2278213500976598
 30
0.0
 11
190.0172882080078125
 21
14.2278213500976598
 31
0.0
  0
LINE
  5
226
100
AcDbEntity
100
AcDbLine
  8
FOREGROUND
 62
8
370
9
  6
CONTINUOUS
 10
190.9335174560546875
 20
14.2278213500976598
 30
0.0
 11
191.7087860107421875
 21
14.2278213500976598
 31
0.0
  0
LINE
  5
227
100
AcDbEntity
100
AcDbLine
  8
FOREGROUND
 62
8
370
9
  6
CONTINUOUS
 10
190.0172882080078125
 20
14.3225822448730504
 30
0.0
 11
190.0172882080078125
 21
14.3225822448730504
 31
0.0
  0
LINE
  5
228
100
AcDbEntity
100
AcDbLine
  8
FOREGROUND
 62
8
370
9
  6
CONTINUOUS
 10
191.0039978027344034
 20
14.3225822448730504
 30
0.0
 11
191.7792510986328125
 21
14.3225822448730504
 31
0.0
  0
LINE
  5
229
100
AcDbEntity
100
AcDbLine
  8
FOREGROUND
 62
8
370
9
  6
CONTINUOUS
 10
191.0039978027344034
 20
14.4173355102539098
 30
0.0
 11
191.8497314453125
 21
14.4173355102539098
 31
0.0
  0
LINE
  5
22A
100
AcDbEntity
100
AcDbLine
  8
FOREGROUND
 62
8
370
9
  6
CONTINUOUS
 10
190.0877685546875
 20
14.5121002197265607
 30
0.0
 11
190.0877685546875
 21
14.5121002197265607
 31
0.0
  0
LINE
  5
22B
100
AcDbEntity
100
AcDbLine
  8
FOREGROUND
 62
8
370
9
  6
CONTINUOUS
 10
191.074462890625
 20
14.5121002197265607
 30
0.0
 11
191.9906921386719034
 21
14.5121002197265607
 31
0.0
  0
LINE
  5
22C
100
AcDbEntity
100
AcDbLine
  8
FOREGROUND
 62
8
370
9
  6
CONTINUOUS
 10
190.0877685546875
 20
14.6068534851074201
 30
0.0
 11
190.0877685546875
 21
14.6068534851074201
 31
0.0
  0
LINE
  5
22D
100
AcDbEntity
100
AcDbLine
  8
FOREGROUND
 62
8
370
9
  6
CONTINUOUS
 10
191.074462890625
 20
14.6068534851074201
 30
0.0
 11
192.0611724853515909
 21
14.6068534851074201
 31
0.0
  0
LINE
  5
22E
100
AcDbEntity
100
AcDbLine
  8
FOREGROUND
 62
8
370
9
  6
CONTINUOUS
 10
190.0877685546875
 20
14.7016181945800799
 30
0.0
 11
190.0877685546875
 21
14.7016181945800799
 31
0.0
  0
LINE
  5
22F
100
AcDbEntity
100
AcDbLine
  8
FOREGROUND
 62
8
370
9
  6
CONTINUOUS
 10
191.2154235839844034
 20
14.7016181945800799
 30
0.0
 11
192.4840393066405966
 21
14.7016181945800799
 31
0.0
  0
LINE
  5
230
100
AcDbEntity
100
AcDbLine
  8
FOREGROUND
 62
8
370
9
  6
CONTINUOUS
 10
190.0877685546875
 20
14.7963714599609393
 30
0.0
 11
190.0877685546875
 21
14.7963714599609393
 31
0.0
  0
LINE
  5
231
100
AcDbEntity
100
AcDbLine
  8
FOREGROUND
 62
8
370
9
  6
CONTINUOUS
 10
191.2859039306640909
 20
14.7963714599609393
 30
0.0
 11
192.7659606933594034
 21
14.7963714599609393
 31
0.0
  0
LINE
  5
232
100
AcDbEntity
100
AcDbLine
  8
FOREGROUND
 62
8
370
9
  6
CONTINUOUS
 10
190.1582489013671875
 20
14.8911247253418004
 30
0.0
 11
190.1582489013671875
 21
14.8911247253418004
 31
0.0
  0
LINE
  5
233
100
AcDbEntity
100
AcDbLine
  8
FOREGROUND
 62
8
370
9
  6
CONTINUOUS
 10
191.4268646240234091
 20
14.8911247253418004
 30
0.0
 11
212.5
 21
14.8911247253418004
 31
0.0
  0
LINE
  5
234
100
AcDbEntity
100
AcDbLine
  8
FOREGROUND
 62
8
370
9
  6
CONTINUOUS
 10
190.1582489013671875
 20
14.9858894348144496
 30
0.0
 11
190.2287292480469034
 21
14.9858894348144496
 31
0.0
  0
LINE
  5
235
100
AcDbEntity
100
AcDbLine
  8
FOREGROUND
 62
8
370
9
  6
CONTINUOUS
 10
191.5678253173828125
 20
14.9858894348144496
 30
0.0
 11
212.5
 21
14.9858894348144496
 31
0.0
  0
LINE
  5
236
100
AcDbEntity
100
AcDbLine
  8
FOREGROUND
 62
8
370
9
  6
CONTINUOUS
 10
190.2287292480469034
 20
15.0806427001953107
 30
0.0
 11
190.2287292480469034
 21
15.0806427001953107
 31
0.0
  0
LINE
  5
237
100
AcDbEntity
100
AcDbLine
  8
FOREGROUND
 62
8
370
9
  6
CONTINUOUS
 10
191.7087860107421875
 20
15.0806427001953107
 30
0.0
 11
212.5
 21
15.0806427001953107
 31
0.0
  0
LINE
  5
238
100
AcDbEntity
100
AcDbLine
  8
FOREGROUND
 62
8
370
9
  6
CONTINUOUS
 10
190.2992095947265909
 20
15.1754035949706996
 30
0.0
 11
190.3696746826171875
 21
15.1754035949706996
 31
0.0
  0
LINE
  5
239
100
AcDbEntity
100
AcDbLine
  8
FOREGROUND
 62
8
370
9
  6
CONTINUOUS
 10
192.0611724853515909
 20
15.1754035949706996
 30
0.0
 11
212.5
 21
15.1754035949706996
 31
0.0
  0
LINE
  5
23A
100
AcDbEntity
100
AcDbLine
  8
FOREGROUND
 62
8
370
9
  6
CONTINUOUS
 10
190.2992095947265909
 20
15.2701606750488299
 30
0.0
 11
190.3696746826171875
 21
15.2701606750488299
 31
0.0
  0
LINE
  5
23B
100
AcDbEntity
100
AcDbLine
  8
FOREGROUND
 62
8
370
9
  6
CONTINUOUS
 10
212.1476135253905966
 20
15.2701606750488299
 30
0.0
 11
212.5
 21
15.2701606750488299
 31
0.0
  0
LINE
  5
23C
100
AcDbEntity
100
AcDbLine
  8
FOREGROUND
 62
8
370
9
  6
CONTINUOUS
 10
190.4401550292969034
 20
15.3649215698242205
 30
0.0
 11
190.4401550292969034
 21
15.3649215698242205
 31
0.0
  0
LINE
  5
23D
100
AcDbEntity
100
AcDbLine
  8
FOREGROUND
 62
8
370
9
  6
CONTINUOUS
 10
212.1476135253905966
 20
15.3649215698242205
 30
0.0
 11
212.5
 21
15.3649215698242205
 31
0.0
  0
LINE
  5
23E
100
AcDbEntity
100
AcDbLine
  8
FOREGROUND
 62
8
370
9
  6
CONTINUOUS
 10
190.4401550292969034
 20
15.4596786499023402
 30
0.0
 11
190.5106353759765909
 21
15.4596786499023402
 31
0.0
  0
LINE
  5
23F
100
AcDbEntity
100
AcDbLine
  8
FOREGROUND
 62
8
370
9
  6
CONTINUOUS
 10
212.1476135253905966
 20
15.4596786499023402
 30
0.0
 11
212.5
 21
15.4596786499023402
 31
0.0
  0
LINE
  5
240
100
AcDbEntity
100
AcDbLine
  8
FOREGROUND
 62
8
370
9
  6
CONTINUOUS
 10
190.5811157226561932
 20
15.5544319152831996
 30
0.0
 11
190.6515960693359091
 21
15.5544319152831996
 31
0.0
  0
LINE
  5
241
100
AcDbEntity
100
AcDbLine
  8
FOREGROUND
 62
8
370
9
  6
CONTINUOUS
 10
212.1476135253905966
 20
15.5544319152831996
 30
0.0
 11
212.5
 21
15.5544319152831996
 31
0.0
  0
LINE
  5
242
100
AcDbEntity
100
AcDbLine
  8
FOREGROUND
 62
8
370
9
  6
CONTINUOUS
 10
190.6515960693359091
 20
15.6491928100585902
 30
0.0
 11
190.7220764160155966
 21
15.6491928100585902
 31
0.0
  0
LINE
  5
243
100
AcDbEntity
100
AcDbLine
  8
FOREGROUND
 62
8
370
9
  6
CONTINUOUS
 10
212.1476135253905966
 20
15.6491928100585902
 30
0.0
 11
212.5
 21
15.6491928100585902
 31
0.0
  0
LINE
  5
244
100
AcDbEntity
100
AcDbLine
  8
FOREGROUND
 62
8
370
9
  6
CONTINUOUS
 10
190.7220764160155966
 20
15.7439498901367205
 30
0.0
 11
190.7925567626953125
 21
15.7439498901367205
 31
0.0
  0
LINE
  5
245
100
AcDbEntity
100
AcDbLine
  8
FOREGROUND
 62
8
370
9
  6
CONTINUOUS
 10
212.1476135253905966
 20
15.7439498901367205
 30
0.0
 11
212.5
 21
15.7439498901367205
 31
0.0
  0
LINE
  5
246
100
AcDbEntity
100
AcDbLine
  8
FOREGROUND
 62
8
370
9
  6
CONTINUOUS
 10
190.863037109375
 20
15.8387107849121094
 30
0.0
 11
191.0039978027344034
 21
15.8387107849121094
 31
0.0
  0
LINE
  5
247
100
AcDbEntity
100
AcDbLine
  8
FOREGROUND
 62
8
370
9
  6
CONTINUOUS
 10
212.1476135253905966
 20
15.8387107849121094
 30
0.0
 11
212.5
 21
15.8387107849121094
 31
0.0
  0
LINE
  5
248
100
AcDbEntity
100
AcDbLine
  8
FOREGROUND
 62
8
370
9
  6
CONTINUOUS
 10
190.9335174560546875
 20
15.9334640502929705
 30
0.0
 11
191.074462890625
 21
15.9334640502929705
 31
0.0
  0
LINE
  5
249
100
AcDbEntity
100
AcDbLine
  8
FOREGROUND
 62
8
370
9
  6
CONTINUOUS
 10
212.1476135253905966
 20
15.9334640502929705
 30
0.0
 11
212.5
 21
15.9334640502929705
 31
0.0
  0
LINE
  5
24A
100
AcDbEntity
100
AcDbLine
  8
FOREGROUND
 62
8
370
9
  6
CONTINUOUS
 10
191.1449432373046875
 20
16.0282287597656214
 30
0.0
 11
191.3563842773438068
 21
16.0282287597656214
 31
0.0
  0
LINE
  5
24B
100
AcDbEntity
100
AcDbLine
  8
FOREGROUND
 62
8
370
9
  6
CONTINUOUS
 10
212.1476135253905966
 20
16.0282287597656214
 30
0.0
 11
212.5
 21
16.0282287597656214
 31
0.0
  0
LINE
  5
24C
100
AcDbEntity
100
AcDbLine
  8
FOREGROUND
 62
8
370
9
  6
CONTINUOUS
 10
191.2154235839844034
 20
16.1229820251464808
 30
0.0
 11
191.4973449707030966
 21
16.1229820251464808
 31
0.0
  0
LINE
  5
24D
100
AcDbEntity
100
AcDbLine
  8
FOREGROUND
 62
8
370
9
  6
CONTINUOUS
 10
212.1476135253905966
 20
16.1229820251464808
 30
0.0
 11
212.3590393066405966
 21
16.1229820251464808
 31
0.0
  0
LINE
  5
24E
100
AcDbEntity
100
AcDbLine
  8
FOREGROUND
 62
8
370
9
  6
CONTINUOUS
 10
191.5678253173828125
 20
16.2177467346191406
 30
0.0
 11
191.6383056640625
 21
16.2177467346191406
 31
0.0
  0
LINE
  5
24F
100
AcDbEntity
100
AcDbLine
  8
FOREGROUND
 62
8
370
9
  6
CONTINUOUS
 10
212.0066528320311932
 20
16.2177467346191406
 30
0.0
 11
212.2180786132811932
 21
16.2177467346191406
 31
0.0
  0
LINE
  5
250
100
AcDbEntity
100
AcDbLine
  8
FOREGROUND
 62
8
370
9
  6
CONTINUOUS
 10
191.7792510986328125
 20
16.3125
 30
0.0
 11
212.2180786132811932
 21
16.3125
 31
0.0
  0
LINE
  5
251
100
AcDbEntity
100
AcDbLine
  8
FOREGROUND
 62
140
370
9
  6
CONTINUOUS
 10
189.4375
 20
7.5
 30
0.0
 11
195.2923736572265909
 21
7.5
 31
0.0
  0
LINE
  5
252
100
AcDbEntity
100
AcDbLine
  8
FOREGROUND
 62
140
370
9
  6
CONTINUOUS
 10
189.4375
 20
7.5976142883300781
 30
0.0
 11
195.5065765380859091
 21
7.5976142883300781
 31
0.0
  0
LINE
  5
253
100
AcDbEntity
100
AcDbLine
  8
FOREGROUND
 62
140
370
9
  6
CONTINUOUS
 10
189.4375
 20
7.6952266693115234
 30
0.0
 11
196.0063781738280966
 21
7.6952266693115234
 31
0.0
  0
LINE
  5
254
100
AcDbEntity
100
AcDbLine
  8
FOREGROUND
 62
140
370
9
  6
CONTINUOUS
 10
189.4375
 20
7.7928390502929688
 30
0.0
 11
196.0777893066405966
 21
7.7928390502929688
 31
0.0
  0
LINE
  5
255
100
AcDbEntity
100
AcDbLine
  8
FOREGROUND
 62
140
370
9
  6
CONTINUOUS
 10
189.4375
 20
7.8904495239257812
 30
0.0
 11
196.3633728027344034
 21
7.8904495239257812
 31
0.0
  0
LINE
  5
256
100
AcDbEntity
100
AcDbLine
  8
FOREGROUND
 62
140
370
9
  6
CONTINUOUS
 10
189.4375
 20
7.9880619049072266
 30
0.0
 11
196.4347991943359091
 21
7.9880619049072266
 31
0.0
  0
LINE
  5
257
100
AcDbEntity
100
AcDbLine
  8
FOREGROUND
 62
140
370
9
  6
CONTINUOUS
 10
189.4375
 20
8.0856742858886719
 30
0.0
 11
196.6490020751953125
 21
8.0856742858886719
 31
0.0
  0
LINE
  5
258
100
AcDbEntity
100
AcDbLine
  8
FOREGROUND
 62
140
370
9
  6
CONTINUOUS
 10
189.4375
 20
8.1832866668701172
 30
0.0
 11
196.7917938232421875
 21
8.1832866668701172
 31
0.0
  0
LINE
  5
259
100
AcDbEntity
100
AcDbLine
  8
FOREGROUND
 62
140
370
9
  6
CONTINUOUS
 10
189.4375
 20
8.2808990478515625
 30
0.0
 11
196.7917938232421875
 21
8.2808990478515625
 31
0.0
  0
LINE
  5
25A
100
AcDbEntity
100
AcDbLine
  8
FOREGROUND
 62
140
370
9
  6
CONTINUOUS
 10
195.0781707763671875
 20
8.3785114288330078
 30
0.0
 11
196.9345855712890909
 21
8.3785114288330078
 31
0.0
  0
LINE
  5
25B
100
AcDbEntity
100
AcDbLine
  8
FOREGROUND
 62
140
370
9
  6
CONTINUOUS
 10
195.2209625244140909
 20
8.4761238098144531
 30
0.0
 11
197.0059967041015909
 21
8.4761238098144531
 31
0.0
  0
LINE
  5
25C
100
AcDbEntity
100
AcDbLine
  8
FOREGROUND
 62
140
370
9
  6
CONTINUOUS
 10
204.07470703125
 20
8.4761238098144531
 30
0.0
 11
206.0739135742188068
 21
8.4761238098144531
 31
0.0
  0
LINE
  5
25D
100
AcDbEntity
100
AcDbLine
  8
FOREGROUND
 62
140
370
9
  6
CONTINUOUS
 10
206.5737152099609091
 20
8.4761238098144531
 30
0.0
 11
207.7875366210938068
 21
8.4761238098144531
 31
0.0
  0
LINE
  5
25E
100
AcDbEntity
100
AcDbLine
  8
FOREGROUND
 62
140
370
9
  6
CONTINUOUS
 10
209.07275390625
 20
8.4761238098144531
 30
0.0
 11
209.5011596679688068
 21
8.4761238098144531
 31
0.0
  0
LINE
  5
25F
100
AcDbEntity
100
AcDbLine
  8
FOREGROUND
 62
140
370
9
  6
CONTINUOUS
 10
211.1433715820311932
 20
8.4761238098144531
 30
0.0
 11
211.5717926025390909
 21
8.4761238098144531
 31
0.0
  0
LINE
  5
260
100
AcDbEntity
100
AcDbLine
  8
FOREGROUND
 62
140
370
9
  6
CONTINUOUS
 10
195.5065765380859091
 20
8.5737380981445312
 30
0.0
 11
197.0774078369140909
 21
8.5737380981445312
 31
0.0
  0
LINE
  5
261
100
AcDbEntity
100
AcDbLine
  8
FOREGROUND
 62
140
370
9
  6
CONTINUOUS
 10
199.2908325195311932
 20
8.5737380981445312
 30
0.0
 11
200.5046234130859091
 21
8.5737380981445312
 31
0.0
  0
LINE
  5
262
100
AcDbEntity
100
AcDbLine
  8
FOREGROUND
 62
140
370
9
  6
CONTINUOUS
 10
201.2900390625
 20
8.5737380981445312
 30
0.0
 11
201.7898712158203125
 21
8.5737380981445312
 31
0.0
  0
LINE
  5
263
100
AcDbEntity
100
AcDbLine
  8
FOREGROUND
 62
140
370
9
  6
CONTINUOUS
 10
203.0036773681640909
 20
8.5737380981445312
 30
0.0
 11
203.4320831298828125
 21
8.5737380981445312
 31
0.0
  0
LINE
  5
264
100
AcDbEntity
100
AcDbLine
  8
FOREGROUND
 62
140
370
9
  6
CONTINUOUS
 10
204.07470703125
 20
8.5737380981445312
 30
0.0
 11
206.0739135742188068
 21
8.5737380981445312
 31
0.0
  0
LINE
  5
265
100
AcDbEntity
100
AcDbLine
  8
FOREGROUND
 62
140
370
9
  6
CONTINUOUS
 10
206.5737152099609091
 20
8.5737380981445312
 30
0.0
 11
208.5015411376953125
 21
8.5737380981445312
 31
0.0
  0
LINE
  5
266
100
AcDbEntity
100
AcDbLine
  8
FOREGROUND
 62
140
370
9
  6
CONTINUOUS
 10
209.07275390625
 20
8.5737380981445312
 30
0.0
 11
209.6439666748046875
 21
8.5737380981445312
 31
0.0
  0
LINE
  5
267
100
AcDbEntity
100
AcDbLine
  8
FOREGROUND
 62
140
370
9
  6
CONTINUOUS
 10
211.0719909667969034
 20
8.5737380981445312
 30
0.0
 11
211.5717926025390909
 21
8.5737380981445312
 31
0.0
  0
LINE
  5
268
100
AcDbEntity
100
AcDbLine
  8
FOREGROUND
 62
140
370
9
  6
CONTINUOUS
 10
195.6493835449219034
 20
8.6713485717773438
 30
0.0
 11
197.1487884521484091
 21
8.6713485717773438
 31
0.0
  0
LINE
  5
269
100
AcDbEntity
100
AcDbLine
  8
FOREGROUND
 62
140
370
9
  6
CONTINUOUS
 10
199.2194213867188068
 20
8.6713485717773438
 30
0.0
 11
200.6474609375
 21
8.6713485717773438
 31
0.0
  0
LINE
  5
26A
100
AcDbEntity
100
AcDbLine
  8
FOREGROUND
 62
140
370
9
  6
CONTINUOUS
 10
201.2900390625
 20
8.6713485717773438
 30
0.0
 11
201.7898712158203125
 21
8.6713485717773438
 31
0.0
  0
LINE
  5
26B
100
AcDbEntity
100
AcDbLine
  8
FOREGROUND
 62
140
370
9
  6
CONTINUOUS
 10
203.0036773681640909
 20
8.6713485717773438
 30
0.0
 11
203.4320831298828125
 21
8.6713485717773438
 31
0.0
  0
LINE
  5
26C
100
AcDbEntity
100
AcDbLine
  8
FOREGROUND
 62
140
370
9
  6
CONTINUOUS
 10
204.07470703125
 20
8.6713485717773438
 30
0.0
 11
206.0739135742188068
 21
8.6713485717773438
 31
0.0
  0
LINE
  5
26D
100
AcDbEntity
100
AcDbLine
  8
FOREGROUND
 62
140
370
9
  6
CONTINUOUS
 10
206.5737152099609091
 20
8.6713485717773438
 30
0.0
 11
208.5729522705078125
 21
8.6713485717773438
 31
0.0
  0
LINE
  5
26E
100
AcDbEntity
100
AcDbLine
  8
FOREGROUND
 62
140
370
9
  6
CONTINUOUS
 10
209.1441650390625
 20
8.6713485717773438
 30
0.0
 11
209.6439666748046875
 21
8.6713485717773438
 31
0.0
  0
LINE
  5
26F
100
AcDbEntity
100
AcDbLine
  8
FOREGROUND
 62
140
370
9
  6
CONTINUOUS
 10
211.0719909667969034
 20
8.6713485717773438
 30
0.0
 11
211.5717926025390909
 21
8.6713485717773438
 31
0.0
  0
LINE
  5
270
100
AcDbEntity
100
AcDbLine
  8
FOREGROUND
 62
140
370
9
  6
CONTINUOUS
 10
195.8635864257811932
 20
8.7689609527587891
 30
0.0
 11
197.2201995849609091
 21
8.7689609527587891
 31
0.0
  0
LINE
  5
271
100
AcDbEntity
100
AcDbLine
  8
FOREGROUND
 62
140
370
9
  6
CONTINUOUS
 10
199.0052185058594034
 20
8.7689609527587891
 30
0.0
 11
200.7902526855469034
 21
8.7689609527587891
 31
0.0
  0
LINE
  5
272
100
AcDbEntity
100
AcDbLine
  8
FOREGROUND
 62
140
370
9
  6
CONTINUOUS
 10
201.2900390625
 20
8.7689609527587891
 30
0.0
 11
201.7898712158203125
 21
8.7689609527587891
 31
0.0
  0
LINE
  5
273
100
AcDbEntity
100
AcDbLine
  8
FOREGROUND
 62
140
370
9
  6
CONTINUOUS
 10
203.0036773681640909
 20
8.7689609527587891
 30
0.0
 11
203.4320831298828125
 21
8.7689609527587891
 31
0.0
  0
LINE
  5
274
100
AcDbEntity
100
AcDbLine
  8
FOREGROUND
 62
140
370
9
  6
CONTINUOUS
 10
204.07470703125
 20
8.7689609527587891
 30
0.0
 11
206.0739135742188068
 21
8.7689609527587891
 31
0.0
  0
LINE
  5
275
100
AcDbEntity
100
AcDbLine
  8
FOREGROUND
 62
140
370
9
  6
CONTINUOUS
 10
206.5737152099609091
 20
8.7689609527587891
 30
0.0
 11
208.6443328857421875
 21
8.7689609527587891
 31
0.0
  0
LINE
  5
276
100
AcDbEntity
100
AcDbLine
  8
FOREGROUND
 62
140
370
9
  6
CONTINUOUS
 10
209.2155456542969034
 20
8.7689609527587891
 30
0.0
 11
209.6439666748046875
 21
8.7689609527587891
 31
0.0
  0
LINE
  5
277
100
AcDbEntity
100
AcDbLine
  8
FOREGROUND
 62
140
370
9
  6
CONTINUOUS
 10
211.0005798339844034
 20
8.7689609527587891
 30
0.0
 11
211.5717926025390909
 21
8.7689609527587891
 31
0.0
  0
LINE
  5
278
100
AcDbEntity
100
AcDbLine
  8
FOREGROUND
 62
140
370
9
  6
CONTINUOUS
 10
196.0063781738280966
 20
8.8665733337402344
 30
0.0
 11
197.2915954589844034
 21
8.8665733337402344
 31
0.0
  0
LINE
  5
279
100
AcDbEntity
100
AcDbLine
  8
FOREGROUND
 62
140
370
9
  6
CONTINUOUS
 10
198.933837890625
 20
8.8665733337402344
 30
0.0
 11
200.8616638183594034
 21
8.8665733337402344
 31
0.0
  0
LINE
  5
27A
100
AcDbEntity
100
AcDbLine
  8
FOREGROUND
 62
140
370
9
  6
CONTINUOUS
 10
201.2900390625
 20
8.8665733337402344
 30
0.0
 11
201.7898712158203125
 21
8.8665733337402344
 31
0.0
  0
LINE
  5
27B
100
AcDbEntity
100
AcDbLine
  8
FOREGROUND
 62
140
370
9
  6
CONTINUOUS
 10
203.0036773681640909
 20
8.8665733337402344
 30
0.0
 11
203.5034942626953125
 21
8.8665733337402344
 31
0.0
  0
LINE
  5
27C
100
AcDbEntity
100
AcDbLine
  8
FOREGROUND
 62
140
370
9
  6
CONTINUOUS
 10
204.07470703125
 20
8.8665733337402344
 30
0.0
 11
206.0739135742188068
 21
8.8665733337402344
 31
0.0
  0
LINE
  5
27D
100
AcDbEntity
100
AcDbLine
  8
FOREGROUND
 62
140
370
9
  6
CONTINUOUS
 10
206.5737152099609091
 20
8.8665733337402344
 30
0.0
 11
208.7157440185546875
 21
8.8665733337402344
 31
0.0
  0
LINE
  5
27E
100
AcDbEntity
100
AcDbLine
  8
FOREGROUND
 62
140
370
9
  6
CONTINUOUS
 10
209.2155456542969034
 20
8.8665733337402344
 30
0.0
 11
209.7153778076171875
 21
8.8665733337402344
 31
0.0
  0
LINE
  5
27F
100
AcDbEntity
100
AcDbLine
  8
FOREGROUND
 62
140
370
9
  6
CONTINUOUS
 10
211.0005798339844034
 20
8.8665733337402344
 30
0.0
 11
211.5717926025390909
 21
8.8665733337402344
 31
0.0
  0
LINE
  5
280
100
AcDbEntity
100
AcDbLine
  8
FOREGROUND
 62
140
370
9
  6
CONTINUOUS
 10
196.0777893066405966
 20
8.9641857147216797
 30
0.0
 11
197.2915954589844034
 21
8.9641857147216797
 31
0.0
  0
LINE
  5
281
100
AcDbEntity
100
AcDbLine
  8
FOREGROUND
 62
140
370
9
  6
CONTINUOUS
 10
198.933837890625
 20
8.9641857147216797
 30
0.0
 11
200.8616638183594034
 21
8.9641857147216797
 31
0.0
  0
LINE
  5
282
100
AcDbEntity
100
AcDbLine
  8
FOREGROUND
 62
140
370
9
  6
CONTINUOUS
 10
201.2900390625
 20
8.9641857147216797
 30
0.0
 11
201.7898712158203125
 21
8.9641857147216797
 31
0.0
  0
LINE
  5
283
100
AcDbEntity
100
AcDbLine
  8
FOREGROUND
 62
140
370
9
  6
CONTINUOUS
 10
203.0036773681640909
 20
8.9641857147216797
 30
0.0
 11
203.5034942626953125
 21
8.9641857147216797
 31
0.0
  0
LINE
  5
284
100
AcDbEntity
100
AcDbLine
  8
FOREGROUND
 62
140
370
9
  6
CONTINUOUS
 10
204.07470703125
 20
8.9641857147216797
 30
0.0
 11
204.5744934082030966
 21
8.9641857147216797
 31
0.0
  0
LINE
  5
285
100
AcDbEntity
100
AcDbLine
  8
FOREGROUND
 62
140
370
9
  6
CONTINUOUS
 10
204.7887115478515909
 20
8.9641857147216797
 30
0.0
 11
206.0739135742188068
 21
8.9641857147216797
 31
0.0
  0
LINE
  5
286
100
AcDbEntity
100
AcDbLine
  8
FOREGROUND
 62
140
370
9
  6
CONTINUOUS
 10
206.5737152099609091
 20
8.9641857147216797
 30
0.0
 11
207.0735321044921875
 21
8.9641857147216797
 31
0.0
  0
LINE
  5
287
100
AcDbEntity
100
AcDbLine
  8
FOREGROUND
 62
140
370
9
  6
CONTINUOUS
 10
207.2877502441405966
 20
8.9641857147216797
 30
0.0
 11
208.7871704101561932
 21
8.9641857147216797
 31
0.0
  0
LINE
  5
288
100
AcDbEntity
100
AcDbLine
  8
FOREGROUND
 62
140
370
9
  6
CONTINUOUS
 10
209.2155456542969034
 20
8.9641857147216797
 30
0.0
 11
209.7867584228515909
 21
8.9641857147216797
 31
0.0
  0
LINE
  5
289
100
AcDbEntity
100
AcDbLine
  8
FOREGROUND
 62
140
370
9
  6
CONTINUOUS
 10
210.9291687011719034
 20
8.9641857147216797
 30
0.0
 11
211.5003814697265909
 21
8.9641857147216797
 31
0.0
  0
LINE
  5
28A
100
AcDbEntity
100
AcDbLine
  8
FOREGROUND
 62
140
370
9
  6
CONTINUOUS
 10
196.2205810546875
 20
9.0618000030517578
 30
0.0
 11
197.3630065917969034
 21
9.0618000030517578
 31
0.0
  0
LINE
  5
28B
100
AcDbEntity
100
AcDbLine
  8
FOREGROUND
 62
140
370
9
  6
CONTINUOUS
 10
198.7910308837890909
 20
9.0618000030517578
 30
0.0
 11
199.6478271484375
 21
9.0618000030517578
 31
0.0
  0
LINE
  5
28C
100
AcDbEntity
100
AcDbLine
  8
FOREGROUND
 62
140
370
9
  6
CONTINUOUS
 10
200.4332427978515909
 20
9.0618000030517578
 30
0.0
 11
200.8616638183594034
 21
9.0618000030517578
 31
0.0
  0
LINE
  5
28D
100
AcDbEntity
100
AcDbLine
  8
FOREGROUND
 62
140
370
9
  6
CONTINUOUS
 10
201.2900390625
 20
9.0618000030517578
 30
0.0
 11
201.7898712158203125
 21
9.0618000030517578
 31
0.0
  0
LINE
  5
28E
100
AcDbEntity
100
AcDbLine
  8
FOREGROUND
 62
140
370
9
  6
CONTINUOUS
 10
203.0036773681640909
 20
9.0618000030517578
 30
0.0
 11
203.4320831298828125
 21
9.0618000030517578
 31
0.0
  0
LINE
  5
28F
100
AcDbEntity
100
AcDbLine
  8
FOREGROUND
 62
140
370
9
  6
CONTINUOUS
 10
204.07470703125
 20
9.0618000030517578
 30
0.0
 11
204.5744934082030966
 21
9.0618000030517578
 31
0.0
  0
LINE
  5
290
100
AcDbEntity
100
AcDbLine
  8
FOREGROUND
 62
140
370
9
  6
CONTINUOUS
 10
206.5737152099609091
 20
9.0618000030517578
 30
0.0
 11
207.0735321044921875
 21
9.0618000030517578
 31
0.0
  0
LINE
  5
291
100
AcDbEntity
100
AcDbLine
  8
FOREGROUND
 62
140
370
9
  6
CONTINUOUS
 10
208.2873382568359091
 20
9.0618000030517578
 30
0.0
 11
208.7871704101561932
 21
9.0618000030517578
 31
0.0
  0
LINE
  5
292
100
AcDbEntity
100
AcDbLine
  8
FOREGROUND
 62
140
370
9
  6
CONTINUOUS
 10
209.2869567871094034
 20
9.0618000030517578
 30
0.0
 11
209.7867584228515909
 21
9.0618000030517578
 31
0.0
  0
LINE
  5
293
100
AcDbEntity
100
AcDbLine
  8
FOREGROUND
 62
140
370
9
  6
CONTINUOUS
 10
210.9291687011719034
 20
9.0618000030517578
 30
0.0
 11
211.5003814697265909
 21
9.0618000030517578
 31
0.0
  0
LINE
  5
294
100
AcDbEntity
100
AcDbLine
  8
FOREGROUND
 62
140
370
9
  6
CONTINUOUS
 10
196.2919921875
 20
9.1594104766845703
 30
0.0
 11
197.3630065917969034
 21
9.1594104766845703
 31
0.0
  0
LINE
  5
295
100
AcDbEntity
100
AcDbLine
  8
FOREGROUND
 62
140
370
9
  6
CONTINUOUS
 10
198.7910308837890909
 20
9.1594104766845703
 30
0.0
 11
199.5050354003905966
 21
9.1594104766845703
 31
0.0
  0
LINE
  5
296
100
AcDbEntity
100
AcDbLine
  8
FOREGROUND
 62
140
370
9
  6
CONTINUOUS
 10
200.5760498046875
 20
9.1594104766845703
 30
0.0
 11
200.8616638183594034
 21
9.1594104766845703
 31
0.0
  0
LINE
  5
297
100
AcDbEntity
100
AcDbLine
  8
FOREGROUND
 62
140
370
9
  6
CONTINUOUS
 10
201.2900390625
 20
9.1594104766845703
 30
0.0
 11
201.7898712158203125
 21
9.1594104766845703
 31
0.0
  0
LINE
  5
298
100
AcDbEntity
100
AcDbLine
  8
FOREGROUND
 62
140
370
9
  6
CONTINUOUS
 10
203.0036773681640909
 20
9.1594104766845703
 30
0.0
 11
203.5034942626953125
 21
9.1594104766845703
 31
0.0
  0
LINE
  5
299
100
AcDbEntity
100
AcDbLine
  8
FOREGROUND
 62
140
370
9
  6
CONTINUOUS
 10
204.07470703125
 20
9.1594104766845703
 30
0.0
 11
204.5744934082030966
 21
9.1594104766845703
 31
0.0
  0
LINE
  5
29A
100
AcDbEntity
100
AcDbLine
  8
FOREGROUND
 62
140
370
9
  6
CONTINUOUS
 10
206.5737152099609091
 20
9.1594104766845703
 30
0.0
 11
207.0735321044921875
 21
9.1594104766845703
 31
0.0
  0
LINE
  5
29B
100
AcDbEntity
100
AcDbLine
  8
FOREGROUND
 62
140
370
9
  6
CONTINUOUS
 10
208.3587493896484091
 20
9.1594104766845703
 30
0.0
 11
208.8585510253905966
 21
9.1594104766845703
 31
0.0
  0
LINE
  5
29C
100
AcDbEntity
100
AcDbLine
  8
FOREGROUND
 62
140
370
9
  6
CONTINUOUS
 10
209.3583679199219034
 20
9.1594104766845703
 30
0.0
 11
211.4290008544921875
 21
9.1594104766845703
 31
0.0
  0
LINE
  5
29D
100
AcDbEntity
100
AcDbLine
  8
FOREGROUND
 62
140
370
9
  6
CONTINUOUS
 10
196.3633728027344034
 20
9.2570228576660156
 30
0.0
 11
197.4344177246094034
 21
9.2570228576660156
 31
0.0
  0
LINE
  5
29E
100
AcDbEntity
100
AcDbLine
  8
FOREGROUND
 62
140
370
9
  6
CONTINUOUS
 10
198.7196197509765909
 20
9.2570228576660156
 30
0.0
 11
199.2908325195311932
 21
9.2570228576660156
 31
0.0
  0
LINE
  5
29F
100
AcDbEntity
100
AcDbLine
  8
FOREGROUND
 62
140
370
9
  6
CONTINUOUS
 10
200.7188415527344034
 20
9.2570228576660156
 30
0.0
 11
200.8616638183594034
 21
9.2570228576660156
 31
0.0
  0
LINE
  5
2A0
100
AcDbEntity
100
AcDbLine
  8
FOREGROUND
 62
140
370
9
  6
CONTINUOUS
 10
201.2900390625
 20
9.2570228576660156
 30
0.0
 11
201.7898712158203125
 21
9.2570228576660156
 31
0.0
  0
LINE
  5
2A1
100
AcDbEntity
100
AcDbLine
  8
FOREGROUND
 62
140
370
9
  6
CONTINUOUS
 10
203.0036773681640909
 20
9.2570228576660156
 30
0.0
 11
203.5034942626953125
 21
9.2570228576660156
 31
0.0
  0
LINE
  5
2A2
100
AcDbEntity
100
AcDbLine
  8
FOREGROUND
 62
140
370
9
  6
CONTINUOUS
 10
204.07470703125
 20
9.2570228576660156
 30
0.0
 11
204.5744934082030966
 21
9.2570228576660156
 31
0.0
  0
LINE
  5
2A3
100
AcDbEntity
100
AcDbLine
  8
FOREGROUND
 62
140
370
9
  6
CONTINUOUS
 10
206.5737152099609091
 20
9.2570228576660156
 30
0.0
 11
207.0735321044921875
 21
9.2570228576660156
 31
0.0
  0
LINE
  5
2A4
100
AcDbEntity
100
AcDbLine
  8
FOREGROUND
 62
140
370
9
  6
CONTINUOUS
 10
208.3587493896484091
 20
9.2570228576660156
 30
0.0
 11
208.8585510253905966
 21
9.2570228576660156
 31
0.0
  0
LINE
  5
2A5
100
AcDbEntity
100
AcDbLine
  8
FOREGROUND
 62
140
370
9
  6
CONTINUOUS
 10
209.3583679199219034
 20
9.2570228576660156
 30
0.0
 11
211.2861938476561932
 21
9.2570228576660156
 31
0.0
  0
LINE
  5
2A6
100
AcDbEntity
100
AcDbLine
  8
FOREGROUND
 62
140
370
9
  6
CONTINUOUS
 10
196.3633728027344034
 20
9.3546333312988281
 30
0.0
 11
197.4344177246094034
 21
9.3546333312988281
 31
0.0
  0
LINE
  5
2A7
100
AcDbEntity
100
AcDbLine
  8
FOREGROUND
 62
140
370
9
  6
CONTINUOUS
 10
198.7196197509765909
 20
9.3546333312988281
 30
0.0
 11
199.2194213867188068
 21
9.3546333312988281
 31
0.0
  0
LINE
  5
2A8
100
AcDbEntity
100
AcDbLine
  8
FOREGROUND
 62
140
370
9
  6
CONTINUOUS
 10
200.7902526855469034
 20
9.3546333312988281
 30
0.0
 11
200.8616638183594034
 21
9.3546333312988281
 31
0.0
  0
LINE
  5
2A9
100
AcDbEntity
100
AcDbLine
  8
FOREGROUND
 62
140
370
9
  6
CONTINUOUS
 10
201.2900390625
 20
9.3546333312988281
 30
0.0
 11
201.7898712158203125
 21
9.3546333312988281
 31
0.0
  0
LINE
  5
2AA
100
AcDbEntity
100
AcDbLine
  8
FOREGROUND
 62
140
370
9
  6
CONTINUOUS
 10
203.0036773681640909
 20
9.3546333312988281
 30
0.0
 11
203.5034942626953125
 21
9.3546333312988281
 31
0.0
  0
LINE
  5
2AB
100
AcDbEntity
100
AcDbLine
  8
FOREGROUND
 62
140
370
9
  6
CONTINUOUS
 10
204.07470703125
 20
9.3546333312988281
 30
0.0
 11
204.5744934082030966
 21
9.3546333312988281
 31
0.0
  0
LINE
  5
2AC
100
AcDbEntity
100
AcDbLine
  8
FOREGROUND
 62
140
370
9
  6
CONTINUOUS
 10
206.5737152099609091
 20
9.3546333312988281
 30
0.0
 11
207.0735321044921875
 21
9.3546333312988281
 31
0.0
  0
LINE
  5
2AD
100
AcDbEntity
100
AcDbLine
  8
FOREGROUND
 62
140
370
9
  6
CONTINUOUS
 10
208.3587493896484091
 20
9.3546333312988281
 30
0.0
 11
208.8585510253905966
 21
9.3546333312988281
 31
0.0
  0
LINE
  5
2AE
100
AcDbEntity
100
AcDbLine
  8
FOREGROUND
 62
140
370
9
  6
CONTINUOUS
 10
209.3583679199219034
 20
9.3546333312988281
 30
0.0
 11
211.3575897216796875
 21
9.3546333312988281
 31
0.0
  0
LINE
  5
2AF
100
AcDbEntity
100
AcDbLine
  8
FOREGROUND
 62
140
370
9
  6
CONTINUOUS
 10
196.5062103271484091
 20
9.4522476196289062
 30
0.0
 11
197.4344177246094034
 21
9.4522476196289062
 31
0.0
  0
LINE
  5
2B0
100
AcDbEntity
100
AcDbLine
  8
FOREGROUND
 62
140
370
9
  6
CONTINUOUS
 10
198.7196197509765909
 20
9.4522476196289062
 30
0.0
 11
199.1480407714844034
 21
9.4522476196289062
 31
0.0
  0
LINE
  5
2B1
100
AcDbEntity
100
AcDbLine
  8
FOREGROUND
 62
140
370
9
  6
CONTINUOUS
 10
201.2900390625
 20
9.4522476196289062
 30
0.0
 11
201.7898712158203125
 21
9.4522476196289062
 31
0.0
  0
LINE
  5
2B2
100
AcDbEntity
100
AcDbLine
  8
FOREGROUND
 62
140
370
9
  6
CONTINUOUS
 10
203.0036773681640909
 20
9.4522476196289062
 30
0.0
 11
203.5034942626953125
 21
9.4522476196289062
 31
0.0
  0
LINE
  5
2B3
100
AcDbEntity
100
AcDbLine
  8
FOREGROUND
 62
140
370
9
  6
CONTINUOUS
 10
204.07470703125
 20
9.4522476196289062
 30
0.0
 11
204.5744934082030966
 21
9.4522476196289062
 31
0.0
  0
LINE
  5
2B4
100
AcDbEntity
100
AcDbLine
  8
FOREGROUND
 62
140
370
9
  6
CONTINUOUS
 10
206.5737152099609091
 20
9.4522476196289062
 30
0.0
 11
207.0735321044921875
 21
9.4522476196289062
 31
0.0
  0
LINE
  5
2B5
100
AcDbEntity
100
AcDbLine
  8
FOREGROUND
 62
140
370
9
  6
CONTINUOUS
 10
208.3587493896484091
 20
9.4522476196289062
 30
0.0
 11
208.8585510253905966
 21
9.4522476196289062
 31
0.0
  0
LINE
  5
2B6
100
AcDbEntity
100
AcDbLine
  8
FOREGROUND
 62
140
370
9
  6
CONTINUOUS
 10
209.4297485351561932
 20
9.4522476196289062
 30
0.0
 11
211.2861938476561932
 21
9.4522476196289062
 31
0.0
  0
LINE
  5
2B7
100
AcDbEntity
100
AcDbLine
  8
FOREGROUND
 62
140
370
9
  6
CONTINUOUS
 10
196.5062103271484091
 20
9.5498619079589844
 30
0.0
 11
197.4344177246094034
 21
9.5498619079589844
 31
0.0
  0
LINE
  5
2B8
100
AcDbEntity
100
AcDbLine
  8
FOREGROUND
 62
140
370
9
  6
CONTINUOUS
 10
198.6482086181640909
 20
9.5498619079589844
 30
0.0
 11
199.1480407714844034
 21
9.5498619079589844
 31
0.0
  0
LINE
  5
2B9
100
AcDbEntity
100
AcDbLine
  8
FOREGROUND
 62
140
370
9
  6
CONTINUOUS
 10
201.2900390625
 20
9.5498619079589844
 30
0.0
 11
201.7898712158203125
 21
9.5498619079589844
 31
0.0
  0
LINE
  5
2BA
100
AcDbEntity
100
AcDbLine
  8
FOREGROUND
 62
140
370
9
  6
CONTINUOUS
 10
203.0036773681640909
 20
9.5498619079589844
 30
0.0
 11
203.5034942626953125
 21
9.5498619079589844
 31
0.0
  0
LINE
  5
2BB
100
AcDbEntity
100
AcDbLine
  8
FOREGROUND
 62
140
370
9
  6
CONTINUOUS
 10
204.07470703125
 20
9.5498619079589844
 30
0.0
 11
204.5744934082030966
 21
9.5498619079589844
 31
0.0
  0
LINE
  5
2BC
100
AcDbEntity
100
AcDbLine
  8
FOREGROUND
 62
140
370
9
  6
CONTINUOUS
 10
206.5737152099609091
 20
9.5498619079589844
 30
0.0
 11
207.0735321044921875
 21
9.5498619079589844
 31
0.0
  0
LINE
  5
2BD
100
AcDbEntity
100
AcDbLine
  8
FOREGROUND
 62
140
370
9
  6
CONTINUOUS
 10
208.2873382568359091
 20
9.5498619079589844
 30
0.0
 11
208.8585510253905966
 21
9.5498619079589844
 31
0.0
  0
LINE
  5
2BE
100
AcDbEntity
100
AcDbLine
  8
FOREGROUND
 62
140
370
9
  6
CONTINUOUS
 10
209.5011596679688068
 20
9.5498619079589844
 30
0.0
 11
211.2861938476561932
 21
9.5498619079589844
 31
0.0
  0
LINE
  5
2BF
100
AcDbEntity
100
AcDbLine
  8
FOREGROUND
 62
140
370
9
  6
CONTINUOUS
 10
196.5062103271484091
 20
9.6474723815917969
 30
0.0
 11
197.4344177246094034
 21
9.6474723815917969
 31
0.0
  0
LINE
  5
2C0
100
AcDbEntity
100
AcDbLine
  8
FOREGROUND
 62
140
370
9
  6
CONTINUOUS
 10
198.6482086181640909
 20
9.6474723815917969
 30
0.0
 11
199.0766296386719034
 21
9.6474723815917969
 31
0.0
  0
LINE
  5
2C1
100
AcDbEntity
100
AcDbLine
  8
FOREGROUND
 62
140
370
9
  6
CONTINUOUS
 10
201.2900390625
 20
9.6474723815917969
 30
0.0
 11
201.7898712158203125
 21
9.6474723815917969
 31
0.0
  0
LINE
  5
2C2
100
AcDbEntity
100
AcDbLine
  8
FOREGROUND
 62
140
370
9
  6
CONTINUOUS
 10
203.0036773681640909
 20
9.6474723815917969
 30
0.0
 11
203.4320831298828125
 21
9.6474723815917969
 31
0.0
  0
LINE
  5
2C3
100
AcDbEntity
100
AcDbLine
  8
FOREGROUND
 62
140
370
9
  6
CONTINUOUS
 10
204.07470703125
 20
9.6474723815917969
 30
0.0
 11
204.5744934082030966
 21
9.6474723815917969
 31
0.0
  0
LINE
  5
2C4
100
AcDbEntity
100
AcDbLine
  8
FOREGROUND
 62
140
370
9
  6
CONTINUOUS
 10
206.5737152099609091
 20
9.6474723815917969
 30
0.0
 11
207.0735321044921875
 21
9.6474723815917969
 31
0.0
  0
LINE
  5
2C5
100
AcDbEntity
100
AcDbLine
  8
FOREGROUND
 62
140
370
9
  6
CONTINUOUS
 10
208.2159576416015909
 20
9.6474723815917969
 30
0.0
 11
208.7871704101561932
 21
9.6474723815917969
 31
0.0
  0
LINE
  5
2C6
100
AcDbEntity
100
AcDbLine
  8
FOREGROUND
 62
140
370
9
  6
CONTINUOUS
 10
209.5011596679688068
 20
9.6474723815917969
 30
0.0
 11
210.0009613037109091
 21
9.6474723815917969
 31
0.0
  0
LINE
  5
2C7
100
AcDbEntity
100
AcDbLine
  8
FOREGROUND
 62
140
370
9
  6
CONTINUOUS
 10
210.7149810791015909
 20
9.6474723815917969
 30
0.0
 11
211.2861938476561932
 21
9.6474723815917969
 31
0.0
  0
LINE
  5
2C8
100
AcDbEntity
100
AcDbLine
  8
FOREGROUND
 62
140
370
9
  6
CONTINUOUS
 10
196.5062103271484091
 20
9.7450847625732422
 30
0.0
 11
197.5057983398438068
 21
9.7450847625732422
 31
0.0
  0
LINE
  5
2C9
100
AcDbEntity
100
AcDbLine
  8
FOREGROUND
 62
140
370
9
  6
CONTINUOUS
 10
198.6482086181640909
 20
9.7450847625732422
 30
0.0
 11
199.0766296386719034
 21
9.7450847625732422
 31
0.0
  0
LINE
  5
2CA
100
AcDbEntity
100
AcDbLine
  8
FOREGROUND
 62
140
370
9
  6
CONTINUOUS
 10
201.2900390625
 20
9.7450847625732422
 30
0.0
 11
203.4320831298828125
 21
9.7450847625732422
 31
0.0
  0
LINE
  5
2CB
100
AcDbEntity
100
AcDbLine
  8
FOREGROUND
 62
140
370
9
  6
CONTINUOUS
 10
204.07470703125
 20
9.7450847625732422
 30
0.0
 11
205.9311218261719034
 21
9.7450847625732422
 31
0.0
  0
LINE
  5
2CC
100
AcDbEntity
100
AcDbLine
  8
FOREGROUND
 62
140
370
9
  6
CONTINUOUS
 10
206.5737152099609091
 20
9.7450847625732422
 30
0.0
 11
208.7157440185546875
 21
9.7450847625732422
 31
0.0
  0
LINE
  5
2CD
100
AcDbEntity
100
AcDbLine
  8
FOREGROUND
 62
140
370
9
  6
CONTINUOUS
 10
209.5725860595703125
 20
9.7450847625732422
 30
0.0
 11
210.0009613037109091
 21
9.7450847625732422
 31
0.0
  0
LINE
  5
2CE
100
AcDbEntity
100
AcDbLine
  8
FOREGROUND
 62
140
370
9
  6
CONTINUOUS
 10
210.6435852050780966
 20
9.7450847625732422
 30
0.0
 11
211.2147979736328125
 21
9.7450847625732422
 31
0.0
  0
LINE
  5
2CF
100
AcDbEntity
100
AcDbLine
  8
FOREGROUND
 62
140
370
9
  6
CONTINUOUS
 10
196.5062103271484091
 20
9.8426952362060547
 30
0.0
 11
197.5057983398438068
 21
9.8426952362060547
 31
0.0
  0
LINE
  5
2D0
100
AcDbEntity
100
AcDbLine
  8
FOREGROUND
 62
140
370
9
  6
CONTINUOUS
 10
198.6482086181640909
 20
9.8426952362060547
 30
0.0
 11
199.0766296386719034
 21
9.8426952362060547
 31
0.0
  0
LINE
  5
2D1
100
AcDbEntity
100
AcDbLine
  8
FOREGROUND
 62
140
370
9
  6
CONTINUOUS
 10
201.2900390625
 20
9.8426952362060547
 30
0.0
 11
203.4320831298828125
 21
9.8426952362060547
 31
0.0
  0
LINE
  5
2D2
100
AcDbEntity
100
AcDbLine
  8
FOREGROUND
 62
140
370
9
  6
CONTINUOUS
 10
204.07470703125
 20
9.8426952362060547
 30
0.0
 11
205.9311218261719034
 21
9.8426952362060547
 31
0.0
  0
LINE
  5
2D3
100
AcDbEntity
100
AcDbLine
  8
FOREGROUND
 62
140
370
9
  6
CONTINUOUS
 10
206.6451263427734091
 20
9.8426952362060547
 30
0.0
 11
208.6443328857421875
 21
9.8426952362060547
 31
0.0
  0
LINE
  5
2D4
100
AcDbEntity
100
AcDbLine
  8
FOREGROUND
 62
140
370
9
  6
CONTINUOUS
 10
209.5725860595703125
 20
9.8426952362060547
 30
0.0
 11
210.0009613037109091
 21
9.8426952362060547
 31
0.0
  0
LINE
  5
2D5
100
AcDbEntity
100
AcDbLine
  8
FOREGROUND
 62
140
370
9
  6
CONTINUOUS
 10
210.6435852050780966
 20
9.8426952362060547
 30
0.0
 11
211.2147979736328125
 21
9.8426952362060547
 31
0.0
  0
LINE
  5
2D6
100
AcDbEntity
100
AcDbLine
  8
FOREGROUND
 62
140
370
9
  6
CONTINUOUS
 10
196.5062103271484091
 20
9.9403095245361328
 30
0.0
 11
197.5057983398438068
 21
9.9403095245361328
 31
0.0
  0
LINE
  5
2D7
100
AcDbEntity
100
AcDbLine
  8
FOREGROUND
 62
140
370
9
  6
CONTINUOUS
 10
198.6482086181640909
 20
9.9403095245361328
 30
0.0
 11
199.0766296386719034
 21
9.9403095245361328
 31
0.0
  0
LINE
  5
2D8
100
AcDbEntity
100
AcDbLine
  8
FOREGROUND
 62
140
370
9
  6
CONTINUOUS
 10
201.2900390625
 20
9.9403095245361328
 30
0.0
 11
203.5034942626953125
 21
9.9403095245361328
 31
0.0
  0
LINE
  5
2D9
100
AcDbEntity
100
AcDbLine
  8
FOREGROUND
 62
140
370
9
  6
CONTINUOUS
 10
204.07470703125
 20
9.9403095245361328
 30
0.0
 11
205.9311218261719034
 21
9.9403095245361328
 31
0.0
  0
LINE
  5
2DA
100
AcDbEntity
100
AcDbLine
  8
FOREGROUND
 62
140
370
9
  6
CONTINUOUS
 10
206.5737152099609091
 20
9.9403095245361328
 30
0.0
 11
208.4301605224609091
 21
9.9403095245361328
 31
0.0
  0
LINE
  5
2DB
100
AcDbEntity
100
AcDbLine
  8
FOREGROUND
 62
140
370
9
  6
CONTINUOUS
 10
209.5725860595703125
 20
9.9403095245361328
 30
0.0
 11
210.0723724365234091
 21
9.9403095245361328
 31
0.0
  0
LINE
  5
2DC
100
AcDbEntity
100
AcDbLine
  8
FOREGROUND
 62
140
370
9
  6
CONTINUOUS
 10
210.6435852050780966
 20
9.9403095245361328
 30
0.0
 11
211.1433715820311932
 21
9.9403095245361328
 31
0.0
  0
LINE
  5
2DD
100
AcDbEntity
100
AcDbLine
  8
FOREGROUND
 62
140
370
9
  6
CONTINUOUS
 10
196.5062103271484091
 20
10.0379219055175799
 30
0.0
 11
197.5057983398438068
 21
10.0379219055175799
 31
0.0
  0
LINE
  5
2DE
100
AcDbEntity
100
AcDbLine
  8
FOREGROUND
 62
140
370
9
  6
CONTINUOUS
 10
198.6482086181640909
 20
10.0379219055175799
 30
0.0
 11
199.0766296386719034
 21
10.0379219055175799
 31
0.0
  0
LINE
  5
2DF
100
AcDbEntity
100
AcDbLine
  8
FOREGROUND
 62
140
370
9
  6
CONTINUOUS
 10
201.2900390625
 20
10.0379219055175799
 30
0.0
 11
203.5034942626953125
 21
10.0379219055175799
 31
0.0
  0
LINE
  5
2E0
100
AcDbEntity
100
AcDbLine
  8
FOREGROUND
 62
140
370
9
  6
CONTINUOUS
 10
204.07470703125
 20
10.0379219055175799
 30
0.0
 11
205.9311218261719034
 21
10.0379219055175799
 31
0.0
  0
LINE
  5
2E1
100
AcDbEntity
100
AcDbLine
  8
FOREGROUND
 62
140
370
9
  6
CONTINUOUS
 10
206.5737152099609091
 20
10.0379219055175799
 30
0.0
 11
208.3587493896484091
 21
10.0379219055175799
 31
0.0
  0
LINE
  5
2E2
100
AcDbEntity
100
AcDbLine
  8
FOREGROUND
 62
140
370
9
  6
CONTINUOUS
 10
209.6439666748046875
 20
10.0379219055175799
 30
0.0
 11
210.1437683105469034
 21
10.0379219055175799
 31
0.0
  0
LINE
  5
2E3
100
AcDbEntity
100
AcDbLine
  8
FOREGROUND
 62
140
370
9
  6
CONTINUOUS
 10
210.6435852050780966
 20
10.0379219055175799
 30
0.0
 11
211.1433715820311932
 21
10.0379219055175799
 31
0.0
  0
LINE
  5
2E4
100
AcDbEntity
100
AcDbLine
  8
FOREGROUND
 62
140
370
9
  6
CONTINUOUS
 10
196.5062103271484091
 20
10.1355342864990199
 30
0.0
 11
197.4344177246094034
 21
10.1355342864990199
 31
0.0
  0
LINE
  5
2E5
100
AcDbEntity
100
AcDbLine
  8
FOREGROUND
 62
140
370
9
  6
CONTINUOUS
 10
198.6482086181640909
 20
10.1355342864990199
 30
0.0
 11
199.0766296386719034
 21
10.1355342864990199
 31
0.0
  0
LINE
  5
2E6
100
AcDbEntity
100
AcDbLine
  8
FOREGROUND
 62
140
370
9
  6
CONTINUOUS
 10
201.2900390625
 20
10.1355342864990199
 30
0.0
 11
203.5034942626953125
 21
10.1355342864990199
 31
0.0
  0
LINE
  5
2E7
100
AcDbEntity
100
AcDbLine
  8
FOREGROUND
 62
140
370
9
  6
CONTINUOUS
 10
204.07470703125
 20
10.1355342864990199
 30
0.0
 11
205.9311218261719034
 21
10.1355342864990199
 31
0.0
  0
LINE
  5
2E8
100
AcDbEntity
100
AcDbLine
  8
FOREGROUND
 62
140
370
9
  6
CONTINUOUS
 10
206.5737152099609091
 20
10.1355342864990199
 30
0.0
 11
208.5015411376953125
 21
10.1355342864990199
 31
0.0
  0
LINE
  5
2E9
100
AcDbEntity
100
AcDbLine
  8
FOREGROUND
 62
140
370
9
  6
CONTINUOUS
 10
209.7153778076171875
 20
10.1355342864990199
 30
0.0
 11
210.1437683105469034
 21
10.1355342864990199
 31
0.0
  0
LINE
  5
2EA
100
AcDbEntity
100
AcDbLine
  8
FOREGROUND
 62
140
370
9
  6
CONTINUOUS
 10
210.5721740722655966
 20
10.1355342864990199
 30
0.0
 11
211.1433715820311932
 21
10.1355342864990199
 31
0.0
  0
LINE
  5
2EB
100
AcDbEntity
100
AcDbLine
  8
FOREGROUND
 62
140
370
9
  6
CONTINUOUS
 10
196.5062103271484091
 20
10.2331466674804705
 30
0.0
 11
197.4344177246094034
 21
10.2331466674804705
 31
0.0
  0
LINE
  5
2EC
100
AcDbEntity
100
AcDbLine
  8
FOREGROUND
 62
140
370
9
  6
CONTINUOUS
 10
198.6482086181640909
 20
10.2331466674804705
 30
0.0
 11
199.0766296386719034
 21
10.2331466674804705
 31
0.0
  0
LINE
  5
2ED
100
AcDbEntity
100
AcDbLine
  8
FOREGROUND
 62
140
370
9
  6
CONTINUOUS
 10
201.2900390625
 20
10.2331466674804705
 30
0.0
 11
201.7898712158203125
 21
10.2331466674804705
 31
0.0
  0
LINE
  5
2EE
100
AcDbEntity
100
AcDbLine
  8
FOREGROUND
 62
140
370
9
  6
CONTINUOUS
 10
202.0754547119140909
 20
10.2331466674804705
 30
0.0
 11
203.5034942626953125
 21
10.2331466674804705
 31
0.0
  0
LINE
  5
2EF
100
AcDbEntity
100
AcDbLine
  8
FOREGROUND
 62
140
370
9
  6
CONTINUOUS
 10
204.07470703125
 20
10.2331466674804705
 30
0.0
 11
204.5744934082030966
 21
10.2331466674804705
 31
0.0
  0
LINE
  5
2F0
100
AcDbEntity
100
AcDbLine
  8
FOREGROUND
 62
140
370
9
  6
CONTINUOUS
 10
204.7887115478515909
 20
10.2331466674804705
 30
0.0
 11
205.9311218261719034
 21
10.2331466674804705
 31
0.0
  0
LINE
  5
2F1
100
AcDbEntity
100
AcDbLine
  8
FOREGROUND
 62
140
370
9
  6
CONTINUOUS
 10
206.5737152099609091
 20
10.2331466674804705
 30
0.0
 11
207.0735321044921875
 21
10.2331466674804705
 31
0.0
  0
LINE
  5
2F2
100
AcDbEntity
100
AcDbLine
  8
FOREGROUND
 62
140
370
9
  6
CONTINUOUS
 10
207.2877502441405966
 20
10.2331466674804705
 30
0.0
 11
208.5015411376953125
 21
10.2331466674804705
 31
0.0
  0
LINE
  5
2F3
100
AcDbEntity
100
AcDbLine
  8
FOREGROUND
 62
140
370
9
  6
CONTINUOUS
 10
209.7153778076171875
 20
10.2331466674804705
 30
0.0
 11
210.1437683105469034
 21
10.2331466674804705
 31
0.0
  0
LINE
  5
2F4
100
AcDbEntity
100
AcDbLine
  8
FOREGROUND
 62
140
370
9
  6
CONTINUOUS
 10
210.5007934570311932
 20
10.2331466674804705
 30
0.0
 11
211.0719909667969034
 21
10.2331466674804705
 31
0.0
  0
LINE
  5
2F5
100
AcDbEntity
100
AcDbLine
  8
FOREGROUND
 62
140
370
9
  6
CONTINUOUS
 10
196.5062103271484091
 20
10.3307571411132795
 30
0.0
 11
197.4344177246094034
 21
10.3307571411132795
 31
0.0
  0
LINE
  5
2F6
100
AcDbEntity
100
AcDbLine
  8
FOREGROUND
 62
140
370
9
  6
CONTINUOUS
 10
198.6482086181640909
 20
10.3307571411132795
 30
0.0
 11
199.1480407714844034
 21
10.3307571411132795
 31
0.0
  0
LINE
  5
2F7
100
AcDbEntity
100
AcDbLine
  8
FOREGROUND
 62
140
370
9
  6
CONTINUOUS
 10
201.2900390625
 20
10.3307571411132795
 30
0.0
 11
201.7898712158203125
 21
10.3307571411132795
 31
0.0
  0
LINE
  5
2F8
100
AcDbEntity
100
AcDbLine
  8
FOREGROUND
 62
140
370
9
  6
CONTINUOUS
 10
203.0036773681640909
 20
10.3307571411132795
 30
0.0
 11
203.5034942626953125
 21
10.3307571411132795
 31
0.0
  0
LINE
  5
2F9
100
AcDbEntity
100
AcDbLine
  8
FOREGROUND
 62
140
370
9
  6
CONTINUOUS
 10
204.07470703125
 20
10.3307571411132795
 30
0.0
 11
204.5744934082030966
 21
10.3307571411132795
 31
0.0
  0
LINE
  5
2FA
100
AcDbEntity
100
AcDbLine
  8
FOREGROUND
 62
140
370
9
  6
CONTINUOUS
 10
206.5737152099609091
 20
10.3307571411132795
 30
0.0
 11
207.0735321044921875
 21
10.3307571411132795
 31
0.0
  0
LINE
  5
2FB
100
AcDbEntity
100
AcDbLine
  8
FOREGROUND
 62
140
370
9
  6
CONTINUOUS
 10
208.2159576416015909
 20
10.3307571411132795
 30
0.0
 11
208.6443328857421875
 21
10.3307571411132795
 31
0.0
  0
LINE
  5
2FC
100
AcDbEntity
100
AcDbLine
  8
FOREGROUND
 62
140
370
9
  6
CONTINUOUS
 10
209.7153778076171875
 20
10.3307571411132795
 30
0.0
 11
210.2151641845703125
 21
10.3307571411132795
 31
0.0
  0
LINE
  5
2FD
100
AcDbEntity
100
AcDbLine
  8
FOREGROUND
 62
140
370
9
  6
CONTINUOUS
 10
210.5007934570311932
 20
10.3307571411132795
 30
0.0
 11
211.0005798339844034
 21
10.3307571411132795
 31
0.0
  0
LINE
  5
2FE
100
AcDbEntity
100
AcDbLine
  8
FOREGROUND
 62
140
370
9
  6
CONTINUOUS
 10
196.4347991943359091
 20
10.4283714294433594
 30
0.0
 11
197.4344177246094034
 21
10.4283714294433594
 31
0.0
  0
LINE
  5
2FF
100
AcDbEntity
100
AcDbLine
  8
FOREGROUND
 62
140
370
9
  6
CONTINUOUS
 10
198.7196197509765909
 20
10.4283714294433594
 30
0.0
 11
199.2194213867188068
 21
10.4283714294433594
 31
0.0
  0
LINE
  5
300
100
AcDbEntity
100
AcDbLine
  8
FOREGROUND
 62
140
370
9
  6
CONTINUOUS
 10
200.8616638183594034
 20
10.4283714294433594
 30
0.0
 11
200.8616638183594034
 21
10.4283714294433594
 31
0.0
  0
LINE
  5
301
100
AcDbEntity
100
AcDbLine
  8
FOREGROUND
 62
140
370
9
  6
CONTINUOUS
 10
201.2900390625
 20
10.4283714294433594
 30
0.0
 11
201.7898712158203125
 21
10.4283714294433594
 31
0.0
  0
LINE
  5
302
100
AcDbEntity
100
AcDbLine
  8
FOREGROUND
 62
140
370
9
  6
CONTINUOUS
 10
203.0036773681640909
 20
10.4283714294433594
 30
0.0
 11
203.5034942626953125
 21
10.4283714294433594
 31
0.0
  0
LINE
  5
303
100
AcDbEntity
100
AcDbLine
  8
FOREGROUND
 62
140
370
9
  6
CONTINUOUS
 10
204.07470703125
 20
10.4283714294433594
 30
0.0
 11
204.5744934082030966
 21
10.4283714294433594
 31
0.0
  0
LINE
  5
304
100
AcDbEntity
100
AcDbLine
  8
FOREGROUND
 62
140
370
9
  6
CONTINUOUS
 10
206.5737152099609091
 20
10.4283714294433594
 30
0.0
 11
207.0735321044921875
 21
10.4283714294433594
 31
0.0
  0
LINE
  5
305
100
AcDbEntity
100
AcDbLine
  8
FOREGROUND
 62
140
370
9
  6
CONTINUOUS
 10
208.2159576416015909
 20
10.4283714294433594
 30
0.0
 11
208.6443328857421875
 21
10.4283714294433594
 31
0.0
  0
LINE
  5
306
100
AcDbEntity
100
AcDbLine
  8
FOREGROUND
 62
140
370
9
  6
CONTINUOUS
 10
209.7867584228515909
 20
10.4283714294433594
 30
0.0
 11
210.2865753173828125
 21
10.4283714294433594
 31
0.0
  0
LINE
  5
307
100
AcDbEntity
100
AcDbLine
  8
FOREGROUND
 62
140
370
9
  6
CONTINUOUS
 10
210.5007934570311932
 20
10.4283714294433594
 30
0.0
 11
211.0005798339844034
 21
10.4283714294433594
 31
0.0
  0
LINE
  5
308
100
AcDbEntity
100
AcDbLine
  8
FOREGROUND
 62
140
370
9
  6
CONTINUOUS
 10
196.4347991943359091
 20
10.5259838104247994
 30
0.0
 11
197.4344177246094034
 21
10.5259838104247994
 31
0.0
  0
LINE
  5
309
100
AcDbEntity
100
AcDbLine
  8
FOREGROUND
 62
140
370
9
  6
CONTINUOUS
 10
198.7196197509765909
 20
10.5259838104247994
 30
0.0
 11
199.2908325195311932
 21
10.5259838104247994
 31
0.0
  0
LINE
  5
30A
100
AcDbEntity
100
AcDbLine
  8
FOREGROUND
 62
140
370
9
  6
CONTINUOUS
 10
200.7902526855469034
 20
10.5259838104247994
 30
0.0
 11
200.8616638183594034
 21
10.5259838104247994
 31
0.0
  0
LINE
  5
30B
100
AcDbEntity
100
AcDbLine
  8
FOREGROUND
 62
140
370
9
  6
CONTINUOUS
 10
201.2900390625
 20
10.5259838104247994
 30
0.0
 11
201.7898712158203125
 21
10.5259838104247994
 31
0.0
  0
LINE
  5
30C
100
AcDbEntity
100
AcDbLine
  8
FOREGROUND
 62
140
370
9
  6
CONTINUOUS
 10
203.0036773681640909
 20
10.5259838104247994
 30
0.0
 11
203.5034942626953125
 21
10.5259838104247994
 31
0.0
  0
LINE
  5
30D
100
AcDbEntity
100
AcDbLine
  8
FOREGROUND
 62
140
370
9
  6
CONTINUOUS
 10
204.07470703125
 20
10.5259838104247994
 30
0.0
 11
204.5744934082030966
 21
10.5259838104247994
 31
0.0
  0
LINE
  5
30E
100
AcDbEntity
100
AcDbLine
  8
FOREGROUND
 62
140
370
9
  6
CONTINUOUS
 10
206.5737152099609091
 20
10.5259838104247994
 30
0.0
 11
207.0735321044921875
 21
10.5259838104247994
 31
0.0
  0
LINE
  5
30F
100
AcDbEntity
100
AcDbLine
  8
FOREGROUND
 62
140
370
9
  6
CONTINUOUS
 10
208.2873382568359091
 20
10.5259838104247994
 30
0.0
 11
208.6443328857421875
 21
10.5259838104247994
 31
0.0
  0
LINE
  5
310
100
AcDbEntity
100
AcDbLine
  8
FOREGROUND
 62
140
370
9
  6
CONTINUOUS
 10
209.8581695556640909
 20
10.5259838104247994
 30
0.0
 11
210.2865753173828125
 21
10.5259838104247994
 31
0.0
  0
LINE
  5
311
100
AcDbEntity
100
AcDbLine
  8
FOREGROUND
 62
140
370
9
  6
CONTINUOUS
 10
210.4293823242188068
 20
10.5259838104247994
 30
0.0
 11
210.9291687011719034
 21
10.5259838104247994
 31
0.0
  0
LINE
  5
312
100
AcDbEntity
100
AcDbLine
  8
FOREGROUND
 62
140
370
9
  6
CONTINUOUS
 10
196.3633728027344034
 20
10.62359619140625
 30
0.0
 11
197.3630065917969034
 21
10.62359619140625
 31
0.0
  0
LINE
  5
313
100
AcDbEntity
100
AcDbLine
  8
FOREGROUND
 62
140
370
9
  6
CONTINUOUS
 10
198.7910308837890909
 20
10.62359619140625
 30
0.0
 11
199.4336242675780966
 21
10.62359619140625
 31
0.0
  0
LINE
  5
314
100
AcDbEntity
100
AcDbLine
  8
FOREGROUND
 62
140
370
9
  6
CONTINUOUS
 10
200.5760498046875
 20
10.62359619140625
 30
0.0
 11
200.8616638183594034
 21
10.62359619140625
 31
0.0
  0
LINE
  5
315
100
AcDbEntity
100
AcDbLine
  8
FOREGROUND
 62
140
370
9
  6
CONTINUOUS
 10
201.2900390625
 20
10.62359619140625
 30
0.0
 11
201.7898712158203125
 21
10.62359619140625
 31
0.0
  0
LINE
  5
316
100
AcDbEntity
100
AcDbLine
  8
FOREGROUND
 62
140
370
9
  6
CONTINUOUS
 10
203.0036773681640909
 20
10.62359619140625
 30
0.0
 11
203.5034942626953125
 21
10.62359619140625
 31
0.0
  0
LINE
  5
317
100
AcDbEntity
100
AcDbLine
  8
FOREGROUND
 62
140
370
9
  6
CONTINUOUS
 10
204.07470703125
 20
10.62359619140625
 30
0.0
 11
204.5744934082030966
 21
10.62359619140625
 31
0.0
  0
LINE
  5
318
100
AcDbEntity
100
AcDbLine
  8
FOREGROUND
 62
140
370
9
  6
CONTINUOUS
 10
206.5737152099609091
 20
10.62359619140625
 30
0.0
 11
207.0735321044921875
 21
10.62359619140625
 31
0.0
  0
LINE
  5
319
100
AcDbEntity
100
AcDbLine
  8
FOREGROUND
 62
140
370
9
  6
CONTINUOUS
 10
208.2159576416015909
 20
10.62359619140625
 30
0.0
 11
208.6443328857421875
 21
10.62359619140625
 31
0.0
  0
LINE
  5
31A
100
AcDbEntity
100
AcDbLine
  8
FOREGROUND
 62
140
370
9
  6
CONTINUOUS
 10
209.8581695556640909
 20
10.62359619140625
 30
0.0
 11
210.9291687011719034
 21
10.62359619140625
 31
0.0
  0
LINE
  5
31B
100
AcDbEntity
100
AcDbLine
  8
FOREGROUND
 62
140
370
9
  6
CONTINUOUS
 10
196.2919921875
 20
10.7212085723877006
 30
0.0
 11
197.2915954589844034
 21
10.7212085723877006
 31
0.0
  0
LINE
  5
31C
100
AcDbEntity
100
AcDbLine
  8
FOREGROUND
 62
140
370
9
  6
CONTINUOUS
 10
198.7910308837890909
 20
10.7212085723877006
 30
0.0
 11
199.576416015625
 21
10.7212085723877006
 31
0.0
  0
LINE
  5
31D
100
AcDbEntity
100
AcDbLine
  8
FOREGROUND
 62
140
370
9
  6
CONTINUOUS
 10
200.4332427978515909
 20
10.7212085723877006
 30
0.0
 11
200.8616638183594034
 21
10.7212085723877006
 31
0.0
  0
LINE
  5
31E
100
AcDbEntity
100
AcDbLine
  8
FOREGROUND
 62
140
370
9
  6
CONTINUOUS
 10
201.2900390625
 20
10.7212085723877006
 30
0.0
 11
201.7898712158203125
 21
10.7212085723877006
 31
0.0
  0
LINE
  5
31F
100
AcDbEntity
100
AcDbLine
  8
FOREGROUND
 62
140
370
9
  6
CONTINUOUS
 10
203.0036773681640909
 20
10.7212085723877006
 30
0.0
 11
203.5034942626953125
 21
10.7212085723877006
 31
0.0
  0
LINE
  5
320
100
AcDbEntity
100
AcDbLine
  8
FOREGROUND
 62
140
370
9
  6
CONTINUOUS
 10
204.07470703125
 20
10.7212085723877006
 30
0.0
 11
204.5744934082030966
 21
10.7212085723877006
 31
0.0
  0
LINE
  5
321
100
AcDbEntity
100
AcDbLine
  8
FOREGROUND
 62
140
370
9
  6
CONTINUOUS
 10
206.5737152099609091
 20
10.7212085723877006
 30
0.0
 11
207.0735321044921875
 21
10.7212085723877006
 31
0.0
  0
LINE
  5
322
100
AcDbEntity
100
AcDbLine
  8
FOREGROUND
 62
140
370
9
  6
CONTINUOUS
 10
208.2159576416015909
 20
10.7212085723877006
 30
0.0
 11
208.6443328857421875
 21
10.7212085723877006
 31
0.0
  0
LINE
  5
323
100
AcDbEntity
100
AcDbLine
  8
FOREGROUND
 62
140
370
9
  6
CONTINUOUS
 10
209.8581695556640909
 20
10.7212085723877006
 30
0.0
 11
210.9291687011719034
 21
10.7212085723877006
 31
0.0
  0
LINE
  5
324
100
AcDbEntity
100
AcDbLine
  8
FOREGROUND
 62
140
370
9
  6
CONTINUOUS
 10
196.149169921875
 20
10.8188190460205096
 30
0.0
 11
197.2915954589844034
 21
10.8188190460205096
 31
0.0
  0
LINE
  5
325
100
AcDbEntity
100
AcDbLine
  8
FOREGROUND
 62
140
370
9
  6
CONTINUOUS
 10
198.8624114990234091
 20
10.8188190460205096
 30
0.0
 11
200.8616638183594034
 21
10.8188190460205096
 31
0.0
  0
LINE
  5
326
100
AcDbEntity
100
AcDbLine
  8
FOREGROUND
 62
140
370
9
  6
CONTINUOUS
 10
201.2900390625
 20
10.8188190460205096
 30
0.0
 11
201.7898712158203125
 21
10.8188190460205096
 31
0.0
  0
LINE
  5
327
100
AcDbEntity
100
AcDbLine
  8
FOREGROUND
 62
140
370
9
  6
CONTINUOUS
 10
203.0036773681640909
 20
10.8188190460205096
 30
0.0
 11
203.4320831298828125
 21
10.8188190460205096
 31
0.0
  0
LINE
  5
328
100
AcDbEntity
100
AcDbLine
  8
FOREGROUND
 62
140
370
9
  6
CONTINUOUS
 10
204.07470703125
 20
10.8188190460205096
 30
0.0
 11
204.7173004150390909
 21
10.8188190460205096
 31
0.0
  0
LINE
  5
329
100
AcDbEntity
100
AcDbLine
  8
FOREGROUND
 62
140
370
9
  6
CONTINUOUS
 10
206.5737152099609091
 20
10.8188190460205096
 30
0.0
 11
207.0735321044921875
 21
10.8188190460205096
 31
0.0
  0
LINE
  5
32A
100
AcDbEntity
100
AcDbLine
  8
FOREGROUND
 62
140
370
9
  6
CONTINUOUS
 10
208.0731353759765909
 20
10.8188190460205096
 30
0.0
 11
208.6443328857421875
 21
10.8188190460205096
 31
0.0
  0
LINE
  5
32B
100
AcDbEntity
100
AcDbLine
  8
FOREGROUND
 62
140
370
9
  6
CONTINUOUS
 10
209.9295806884765909
 20
10.8188190460205096
 30
0.0
 11
210.8577880859375
 21
10.8188190460205096
 31
0.0
  0
LINE
  5
32C
100
AcDbEntity
100
AcDbLine
  8
FOREGROUND
 62
140
370
9
  6
CONTINUOUS
 10
196.0777893066405966
 20
10.9164333343505895
 30
0.0
 11
197.2201995849609091
 21
10.9164333343505895
 31
0.0
  0
LINE
  5
32D
100
AcDbEntity
100
AcDbLine
  8
FOREGROUND
 62
140
370
9
  6
CONTINUOUS
 10
198.933837890625
 20
10.9164333343505895
 30
0.0
 11
200.8616638183594034
 21
10.9164333343505895
 31
0.0
  0
LINE
  5
32E
100
AcDbEntity
100
AcDbLine
  8
FOREGROUND
 62
140
370
9
  6
CONTINUOUS
 10
201.2900390625
 20
10.9164333343505895
 30
0.0
 11
201.7898712158203125
 21
10.9164333343505895
 31
0.0
  0
LINE
  5
32F
100
AcDbEntity
100
AcDbLine
  8
FOREGROUND
 62
140
370
9
  6
CONTINUOUS
 10
203.0036773681640909
 20
10.9164333343505895
 30
0.0
 11
203.5034942626953125
 21
10.9164333343505895
 31
0.0
  0
LINE
  5
330
100
AcDbEntity
100
AcDbLine
  8
FOREGROUND
 62
140
370
9
  6
CONTINUOUS
 10
204.07470703125
 20
10.9164333343505895
 30
0.0
 11
206.0025024414061932
 21
10.9164333343505895
 31
0.0
  0
LINE
  5
331
100
AcDbEntity
100
AcDbLine
  8
FOREGROUND
 62
140
370
9
  6
CONTINUOUS
 10
206.5737152099609091
 20
10.9164333343505895
 30
0.0
 11
208.6443328857421875
 21
10.9164333343505895
 31
0.0
  0
LINE
  5
332
100
AcDbEntity
100
AcDbLine
  8
FOREGROUND
 62
140
370
9
  6
CONTINUOUS
 10
210.0009613037109091
 20
10.9164333343505895
 30
0.0
 11
210.786376953125
 21
10.9164333343505895
 31
0.0
  0
LINE
  5
333
100
AcDbEntity
100
AcDbLine
  8
FOREGROUND
 62
140
370
9
  6
CONTINUOUS
 10
195.8635864257811932
 20
11.0140457153320295
 30
0.0
 11
197.2201995849609091
 21
11.0140457153320295
 31
0.0
  0
LINE
  5
334
100
AcDbEntity
100
AcDbLine
  8
FOREGROUND
 62
140
370
9
  6
CONTINUOUS
 10
199.0052185058594034
 20
11.0140457153320295
 30
0.0
 11
200.8616638183594034
 21
11.0140457153320295
 31
0.0
  0
LINE
  5
335
100
AcDbEntity
100
AcDbLine
  8
FOREGROUND
 62
140
370
9
  6
CONTINUOUS
 10
201.2900390625
 20
11.0140457153320295
 30
0.0
 11
201.7898712158203125
 21
11.0140457153320295
 31
0.0
  0
LINE
  5
336
100
AcDbEntity
100
AcDbLine
  8
FOREGROUND
 62
140
370
9
  6
CONTINUOUS
 10
203.0036773681640909
 20
11.0140457153320295
 30
0.0
 11
203.5034942626953125
 21
11.0140457153320295
 31
0.0
  0
LINE
  5
337
100
AcDbEntity
100
AcDbLine
  8
FOREGROUND
 62
140
370
9
  6
CONTINUOUS
 10
204.07470703125
 20
11.0140457153320295
 30
0.0
 11
206.0739135742188068
 21
11.0140457153320295
 31
0.0
  0
LINE
  5
338
100
AcDbEntity
100
AcDbLine
  8
FOREGROUND
 62
140
370
9
  6
CONTINUOUS
 10
206.6451263427734091
 20
11.0140457153320295
 30
0.0
 11
208.5729522705078125
 21
11.0140457153320295
 31
0.0
  0
LINE
  5
339
100
AcDbEntity
100
AcDbLine
  8
FOREGROUND
 62
140
370
9
  6
CONTINUOUS
 10
210.0009613037109091
 20
11.0140457153320295
 30
0.0
 11
210.786376953125
 21
11.0140457153320295
 31
0.0
  0
LINE
  5
33A
100
AcDbEntity
100
AcDbLine
  8
FOREGROUND
 62
140
370
9
  6
CONTINUOUS
 10
195.5779571533203125
 20
11.1116561889648402
 30
0.0
 11
197.1487884521484091
 21
11.1116561889648402
 31
0.0
  0
LINE
  5
33B
100
AcDbEntity
100
AcDbLine
  8
FOREGROUND
 62
140
370
9
  6
CONTINUOUS
 10
199.1480407714844034
 20
11.1116561889648402
 30
0.0
 11
200.7188415527344034
 21
11.1116561889648402
 31
0.0
  0
LINE
  5
33C
100
AcDbEntity
100
AcDbLine
  8
FOREGROUND
 62
140
370
9
  6
CONTINUOUS
 10
201.2900390625
 20
11.1116561889648402
 30
0.0
 11
201.7898712158203125
 21
11.1116561889648402
 31
0.0
  0
LINE
  5
33D
100
AcDbEntity
100
AcDbLine
  8
FOREGROUND
 62
140
370
9
  6
CONTINUOUS
 10
203.0036773681640909
 20
11.1116561889648402
 30
0.0
 11
203.5034942626953125
 21
11.1116561889648402
 31
0.0
  0
LINE
  5
33E
100
AcDbEntity
100
AcDbLine
  8
FOREGROUND
 62
140
370
9
  6
CONTINUOUS
 10
204.07470703125
 20
11.1116561889648402
 30
0.0
 11
206.0739135742188068
 21
11.1116561889648402
 31
0.0
  0
LINE
  5
33F
100
AcDbEntity
100
AcDbLine
  8
FOREGROUND
 62
140
370
9
  6
CONTINUOUS
 10
206.5737152099609091
 20
11.1116561889648402
 30
0.0
 11
208.5015411376953125
 21
11.1116561889648402
 31
0.0
  0
LINE
  5
340
100
AcDbEntity
100
AcDbLine
  8
FOREGROUND
 62
140
370
9
  6
CONTINUOUS
 10
210.0723724365234091
 20
11.1116561889648402
 30
0.0
 11
210.7149810791015909
 21
11.1116561889648402
 31
0.0
  0
LINE
  5
341
100
AcDbEntity
100
AcDbLine
  8
FOREGROUND
 62
140
370
9
  6
CONTINUOUS
 10
195.4351654052734091
 20
11.2092704772949201
 30
0.0
 11
197.0774078369140909
 21
11.2092704772949201
 31
0.0
  0
LINE
  5
342
100
AcDbEntity
100
AcDbLine
  8
FOREGROUND
 62
140
370
9
  6
CONTINUOUS
 10
199.2908325195311932
 20
11.2092704772949201
 30
0.0
 11
200.6474609375
 21
11.2092704772949201
 31
0.0
  0
LINE
  5
343
100
AcDbEntity
100
AcDbLine
  8
FOREGROUND
 62
140
370
9
  6
CONTINUOUS
 10
201.2900390625
 20
11.2092704772949201
 30
0.0
 11
201.8612518310546875
 21
11.2092704772949201
 31
0.0
  0
LINE
  5
344
100
AcDbEntity
100
AcDbLine
  8
FOREGROUND
 62
140
370
9
  6
CONTINUOUS
 10
203.0036773681640909
 20
11.2092704772949201
 30
0.0
 11
203.5034942626953125
 21
11.2092704772949201
 31
0.0
  0
LINE
  5
345
100
AcDbEntity
100
AcDbLine
  8
FOREGROUND
 62
140
370
9
  6
CONTINUOUS
 10
204.07470703125
 20
11.2092704772949201
 30
0.0
 11
206.0739135742188068
 21
11.2092704772949201
 31
0.0
  0
LINE
  5
346
100
AcDbEntity
100
AcDbLine
  8
FOREGROUND
 62
140
370
9
  6
CONTINUOUS
 10
206.5737152099609091
 20
11.2092704772949201
 30
0.0
 11
208.3587493896484091
 21
11.2092704772949201
 31
0.0
  0
LINE
  5
347
100
AcDbEntity
100
AcDbLine
  8
FOREGROUND
 62
140
370
9
  6
CONTINUOUS
 10
210.0723724365234091
 20
11.2092704772949201
 30
0.0
 11
210.7149810791015909
 21
11.2092704772949201
 31
0.0
  0
LINE
  5
348
100
AcDbEntity
100
AcDbLine
  8
FOREGROUND
 62
140
370
9
  6
CONTINUOUS
 10
195.0781707763671875
 20
11.3068809509277308
 30
0.0
 11
197.0059967041015909
 21
11.3068809509277308
 31
0.0
  0
LINE
  5
349
100
AcDbEntity
100
AcDbLine
  8
FOREGROUND
 62
140
370
9
  6
CONTINUOUS
 10
199.6478271484375
 20
11.3068809509277308
 30
0.0
 11
200.2904510498046875
 21
11.3068809509277308
 31
0.0
  0
LINE
  5
34A
100
AcDbEntity
100
AcDbLine
  8
FOREGROUND
 62
140
370
9
  6
CONTINUOUS
 10
201.2900390625
 20
11.3068809509277308
 30
0.0
 11
201.8612518310546875
 21
11.3068809509277308
 31
0.0
  0
LINE
  5
34B
100
AcDbEntity
100
AcDbLine
  8
FOREGROUND
 62
140
370
9
  6
CONTINUOUS
 10
203.0036773681640909
 20
11.3068809509277308
 30
0.0
 11
203.5034942626953125
 21
11.3068809509277308
 31
0.0
  0
LINE
  5
34C
100
AcDbEntity
100
AcDbLine
  8
FOREGROUND
 62
140
370
9
  6
CONTINUOUS
 10
204.07470703125
 20
11.3068809509277308
 30
0.0
 11
206.0739135742188068
 21
11.3068809509277308
 31
0.0
  0
LINE
  5
34D
100
AcDbEntity
100
AcDbLine
  8
FOREGROUND
 62
140
370
9
  6
CONTINUOUS
 10
206.6451263427734091
 20
11.3068809509277308
 30
0.0
 11
208.1445465087890909
 21
11.3068809509277308
 31
0.0
  0
LINE
  5
34E
100
AcDbEntity
100
AcDbLine
  8
FOREGROUND
 62
140
370
9
  6
CONTINUOUS
 10
210.0723724365234091
 20
11.3068809509277308
 30
0.0
 11
210.6435852050780966
 21
11.3068809509277308
 31
0.0
  0
LINE
  5
34F
100
AcDbEntity
100
AcDbLine
  8
FOREGROUND
 62
140
370
9
  6
CONTINUOUS
 10
194.7925872802734091
 20
11.4044952392578107
 30
0.0
 11
196.9345855712890909
 21
11.4044952392578107
 31
0.0
  0
LINE
  5
350
100
AcDbEntity
100
AcDbLine
  8
FOREGROUND
 62
140
370
9
  6
CONTINUOUS
 10
193.7929534912109091
 20
11.5021076202392596
 30
0.0
 11
196.8632049560546875
 21
11.5021076202392596
 31
0.0
  0
LINE
  5
351
100
AcDbEntity
100
AcDbLine
  8
FOREGROUND
 62
140
370
9
  6
CONTINUOUS
 10
193.0789489746094034
 20
11.5997200012206996
 30
0.0
 11
196.7917938232421875
 21
11.5997200012206996
 31
0.0
  0
LINE
  5
352
100
AcDbEntity
100
AcDbLine
  8
FOREGROUND
 62
140
370
9
  6
CONTINUOUS
 10
191.8651275634765909
 20
11.6973323822021502
 30
0.0
 11
196.6490020751953125
 21
11.6973323822021502
 31
0.0
  0
LINE
  5
353
100
AcDbEntity
100
AcDbLine
  8
FOREGROUND
 62
140
370
9
  6
CONTINUOUS
 10
191.5081329345703125
 20
11.7949428558349592
 30
0.0
 11
196.5775909423828125
 21
11.7949428558349592
 31
0.0
  0
LINE
  5
354
100
AcDbEntity
100
AcDbLine
  8
FOREGROUND
 62
140
370
9
  6
CONTINUOUS
 10
191.2225341796875
 20
11.8925571441650408
 30
0.0
 11
196.4347991943359091
 21
11.8925571441650408
 31
0.0
  0
LINE
  5
355
100
AcDbEntity
100
AcDbLine
  8
FOREGROUND
 62
140
370
9
  6
CONTINUOUS
 10
191.0083312988280966
 20
11.9901695251464808
 30
0.0
 11
196.2919921875
 21
11.9901695251464808
 31
0.0
  0
LINE
  5
356
100
AcDbEntity
100
AcDbLine
  8
FOREGROUND
 62
140
370
9
  6
CONTINUOUS
 10
190.9369201660155966
 20
12.0877799987793004
 30
0.0
 11
196.149169921875
 21
12.0877799987793004
 31
0.0
  0
LINE
  5
357
100
AcDbEntity
100
AcDbLine
  8
FOREGROUND
 62
140
370
9
  6
CONTINUOUS
 10
190.7941284179688068
 20
12.1853942871093803
 30
0.0
 11
195.9349975585938068
 21
12.1853942871093803
 31
0.0
  0
LINE
  5
358
100
AcDbEntity
100
AcDbLine
  8
FOREGROUND
 62
140
370
9
  6
CONTINUOUS
 10
190.7227172851561932
 20
12.2830047607421893
 30
0.0
 11
195.7921752929688068
 21
12.2830047607421893
 31
0.0
  0
LINE
  5
359
100
AcDbEntity
100
AcDbLine
  8
FOREGROUND
 62
140
370
9
  6
CONTINUOUS
 10
190.5799102783203125
 20
12.3806190490722692
 30
0.0
 11
195.4351654052734091
 21
12.3806190490722692
 31
0.0
  0
LINE
  5
35A
100
AcDbEntity
100
AcDbLine
  8
FOREGROUND
 62
140
370
9
  6
CONTINUOUS
 10
190.5084991455078125
 20
12.4782314300537092
 30
0.0
 11
195.2209625244140909
 21
12.4782314300537092
 31
0.0
  0
LINE
  5
35B
100
AcDbEntity
100
AcDbLine
  8
FOREGROUND
 62
140
370
9
  6
CONTINUOUS
 10
190.4371185302734091
 20
12.5758438110351598
 30
0.0
 11
194.8639678955078125
 21
12.5758438110351598
 31
0.0
  0
LINE
  5
35C
100
AcDbEntity
100
AcDbLine
  8
FOREGROUND
 62
140
370
9
  6
CONTINUOUS
 10
190.3657073974609091
 20
12.6734542846679705
 30
0.0
 11
193.8643646240234091
 21
12.6734542846679705
 31
0.0
  0
LINE
  5
35D
100
AcDbEntity
100
AcDbLine
  8
FOREGROUND
 62
140
370
9
  6
CONTINUOUS
 10
190.3657073974609091
 20
12.7710666656494105
 30
0.0
 11
193.2217559814453125
 21
12.7710666656494105
 31
0.0
  0
LINE
  5
35E
100
AcDbEntity
100
AcDbLine
  8
FOREGROUND
 62
140
370
9
  6
CONTINUOUS
 10
190.2229156494140909
 20
12.8686809539794904
 30
0.0
 11
191.8651275634765909
 21
12.8686809539794904
 31
0.0
  0
LINE
  5
35F
100
AcDbEntity
100
AcDbLine
  8
FOREGROUND
 62
140
370
9
  6
CONTINUOUS
 10
190.2229156494140909
 20
12.9662933349609393
 30
0.0
 11
191.6509246826171875
 21
12.9662933349609393
 31
0.0
  0
LINE
  5
360
100
AcDbEntity
100
AcDbLine
  8
FOREGROUND
 62
140
370
9
  6
CONTINUOUS
 10
190.2229156494140909
 20
13.06390380859375
 30
0.0
 11
191.4367065429688068
 21
13.06390380859375
 31
0.0
  0
LINE
  5
361
100
AcDbEntity
100
AcDbLine
  8
FOREGROUND
 62
140
370
9
  6
CONTINUOUS
 10
190.1515045166015909
 20
13.1615161895752006
 30
0.0
 11
191.3653259277344034
 21
13.1615161895752006
 31
0.0
  0
LINE
  5
362
100
AcDbEntity
100
AcDbLine
  8
FOREGROUND
 62
140
370
9
  6
CONTINUOUS
 10
190.1515045166015909
 20
13.2591285705566406
 30
0.0
 11
191.2225341796875
 21
13.2591285705566406
 31
0.0
  0
LINE
  5
363
100
AcDbEntity
100
AcDbLine
  8
FOREGROUND
 62
140
370
9
  6
CONTINUOUS
 10
190.1515045166015909
 20
13.3567428588867205
 30
0.0
 11
191.151123046875
 21
13.3567428588867205
 31
0.0
  0
LINE
  5
364
100
AcDbEntity
100
AcDbLine
  8
FOREGROUND
 62
140
370
9
  6
CONTINUOUS
 10
190.1515045166015909
 20
13.4543533325195295
 30
0.0
 11
191.0797119140625
 21
13.4543533325195295
 31
0.0
  0
LINE
  5
365
100
AcDbEntity
100
AcDbLine
  8
FOREGROUND
 62
140
370
9
  6
CONTINUOUS
 10
190.0801239013671875
 20
13.5519676208496094
 30
0.0
 11
191.0797119140625
 21
13.5519676208496094
 31
0.0
  0
LINE
  5
366
100
AcDbEntity
100
AcDbLine
  8
FOREGROUND
 62
140
370
9
  6
CONTINUOUS
 10
190.0801239013671875
 20
13.6495780944824201
 30
0.0
 11
191.0083312988280966
 21
13.6495780944824201
 31
0.0
  0
LINE
  5
367
100
AcDbEntity
100
AcDbLine
  8
FOREGROUND
 62
140
370
9
  6
CONTINUOUS
 10
190.0801239013671875
 20
13.7471904754638707
 30
0.0
 11
191.0083312988280966
 21
13.7471904754638707
 31
0.0
  0
LINE
  5
368
100
AcDbEntity
100
AcDbLine
  8
FOREGROUND
 62
140
370
9
  6
CONTINUOUS
 10
190.0801239013671875
 20
13.8448047637939506
 30
0.0
 11
190.9369201660155966
 21
13.8448047637939506
 31
0.0
  0
LINE
  5
369
100
AcDbEntity
100
AcDbLine
  8
FOREGROUND
 62
140
370
9
  6
CONTINUOUS
 10
190.0801239013671875
 20
13.9424171447753906
 30
0.0
 11
190.9369201660155966
 21
13.9424171447753906
 31
0.0
  0
LINE
  5
36A
100
AcDbEntity
100
AcDbLine
  8
FOREGROUND
 62
140
370
9
  6
CONTINUOUS
 10
190.0801239013671875
 20
14.0400276184081996
 30
0.0
 11
190.9369201660155966
 21
14.0400276184081996
 31
0.0
  0
LINE
  5
36B
100
AcDbEntity
100
AcDbLine
  8
FOREGROUND
 62
140
370
9
  6
CONTINUOUS
 10
190.0801239013671875
 20
14.1376399993896502
 30
0.0
 11
191.0083312988280966
 21
14.1376399993896502
 31
0.0
  0
LINE
  5
36C
100
AcDbEntity
100
AcDbLine
  8
FOREGROUND
 62
140
370
9
  6
CONTINUOUS
 10
190.0801239013671875
 20
14.2352523803710902
 30
0.0
 11
191.0083312988280966
 21
14.2352523803710902
 31
0.0
  0
LINE
  5
36D
100
AcDbEntity
100
AcDbLine
  8
FOREGROUND
 62
140
370
9
  6
CONTINUOUS
 10
190.1515045166015909
 20
14.3328666687011701
 30
0.0
 11
191.0797119140625
 21
14.3328666687011701
 31
0.0
  0
LINE
  5
36E
100
AcDbEntity
100
AcDbLine
  8
FOREGROUND
 62
140
370
9
  6
CONTINUOUS
 10
190.1515045166015909
 20
14.4304790496826207
 30
0.0
 11
191.151123046875
 21
14.4304790496826207
 31
0.0
  0
LINE
  5
36F
100
AcDbEntity
100
AcDbLine
  8
FOREGROUND
 62
140
370
9
  6
CONTINUOUS
 10
190.1515045166015909
 20
14.5280895233154297
 30
0.0
 11
191.151123046875
 21
14.5280895233154297
 31
0.0
  0
LINE
  5
370
100
AcDbEntity
100
AcDbLine
  8
FOREGROUND
 62
140
370
9
  6
CONTINUOUS
 10
190.1515045166015909
 20
14.6257019042968803
 30
0.0
 11
191.2225341796875
 21
14.6257019042968803
 31
0.0
  0
LINE
  5
371
100
AcDbEntity
100
AcDbLine
  8
FOREGROUND
 62
140
370
9
  6
CONTINUOUS
 10
190.1515045166015909
 20
14.7233142852783203
 30
0.0
 11
191.2939147949219034
 21
14.7233142852783203
 31
0.0
  0
LINE
  5
372
100
AcDbEntity
100
AcDbLine
  8
FOREGROUND
 62
140
370
9
  6
CONTINUOUS
 10
190.2229156494140909
 20
14.8209285736084002
 30
0.0
 11
191.4367065429688068
 21
14.8209285736084002
 31
0.0
  0
LINE
  5
373
100
AcDbEntity
100
AcDbLine
  8
FOREGROUND
 62
140
370
9
  6
CONTINUOUS
 10
190.2229156494140909
 20
14.9185390472412092
 30
0.0
 11
191.7223358154296875
 21
14.9185390472412092
 31
0.0
  0
LINE
  5
374
100
AcDbEntity
100
AcDbLine
  8
FOREGROUND
 62
140
370
9
  6
CONTINUOUS
 10
190.2942962646484091
 20
15.0161514282226598
 30
0.0
 11
191.7937469482421875
 21
15.0161514282226598
 31
0.0
  0
LINE
  5
375
100
AcDbEntity
100
AcDbLine
  8
FOREGROUND
 62
140
370
9
  6
CONTINUOUS
 10
190.3657073974609091
 20
15.1137619018554705
 30
0.0
 11
212.3572082519530966
 21
15.1137619018554705
 31
0.0
  0
LINE
  5
376
100
AcDbEntity
100
AcDbLine
  8
FOREGROUND
 62
140
370
9
  6
CONTINUOUS
 10
190.3657073974609091
 20
15.2113761901855504
 30
0.0
 11
212.5
 21
15.2113761901855504
 31
0.0
  0
LINE
  5
377
100
AcDbEntity
100
AcDbLine
  8
FOREGROUND
 62
140
370
9
  6
CONTINUOUS
 10
190.5084991455078125
 20
15.3089904785156197
 30
0.0
 11
194.8000030517578125
 21
15.3089904785156197
 31
0.0
  0
LINE
  5
378
100
AcDbEntity
100
AcDbLine
  8
FOREGROUND
 62
140
370
9
  6
CONTINUOUS
 10
190.5084991455078125
 20
15.4066009521484393
 30
0.0
 11
194.8000030517578125
 21
15.4066009521484393
 31
0.0
  0
LINE
  5
379
100
AcDbEntity
100
AcDbLine
  8
FOREGROUND
 62
140
370
9
  6
CONTINUOUS
 10
190.6513214111328125
 20
15.5042133331298793
 30
0.0
 11
194.8000030517578125
 21
15.5042133331298793
 31
0.0
  0
LINE
  5
37A
100
AcDbEntity
100
AcDbLine
  8
FOREGROUND
 62
140
370
9
  6
CONTINUOUS
 10
190.7227172851561932
 20
15.6018238067627006
 30
0.0
 11
194.8000030517578125
 21
15.6018238067627006
 31
0.0
  0
LINE
  5
37B
100
AcDbEntity
100
AcDbLine
  8
FOREGROUND
 62
140
370
9
  6
CONTINUOUS
 10
190.7941284179688068
 20
15.6994380950927699
 30
0.0
 11
194.8000030517578125
 21
15.6994380950927699
 31
0.0
  0
LINE
  5
37C
100
AcDbEntity
100
AcDbLine
  8
FOREGROUND
 62
140
370
9
  6
CONTINUOUS
 10
190.9369201660155966
 20
15.7970523834228498
 30
0.0
 11
194.8000030517578125
 21
15.7970523834228498
 31
0.0
  0
LINE
  5
37D
100
AcDbEntity
100
AcDbLine
  8
FOREGROUND
 62
140
370
9
  6
CONTINUOUS
 10
191.0083312988280966
 20
15.8946628570556605
 30
0.0
 11
194.8000030517578125
 21
15.8946628570556605
 31
0.0
  0
LINE
  5
37E
100
AcDbEntity
100
AcDbLine
  8
FOREGROUND
 62
140
370
9
  6
CONTINUOUS
 10
191.2225341796875
 20
15.9922752380371094
 30
0.0
 11
194.8000030517578125
 21
15.9922752380371094
 31
0.0
  0
LINE
  5
37F
100
AcDbEntity
100
AcDbLine
  8
FOREGROUND
 62
140
370
9
  6
CONTINUOUS
 10
191.2939147949219034
 20
16.0898857116699183
 30
0.0
 11
194.8000030517578125
 21
16.0898857116699183
 31
0.0
  0
LINE
  5
380
100
AcDbEntity
100
AcDbLine
  8
FOREGROUND
 62
140
370
9
  6
CONTINUOUS
 10
191.6509246826171875
 20
16.1875
 30
0.0
 11
212.4285888671875
 21
16.1875
 31
0.0
  0
LINE
  5
381
100
AcDbEntity
100
AcDbLine
  8
FOREGROUND
 62
140
370
9
  6
CONTINUOUS
 10
211.6000061035155966
 20
15.9946632385253906
 30
0.0
 11
212.5
 21
15.9946632385253906
 31
0.0
  0
LINE
  5
382
100
AcDbEntity
100
AcDbLine
  8
FOREGROUND
 62
140
370
9
  6
CONTINUOUS
 10
211.6000061035155966
 20
15.4089908599853498
 30
0.0
 11
212.5
 21
15.4089908599853498
 31
0.0
  0
LINE
  5
383
100
AcDbEntity
100
AcDbLine
  8
FOREGROUND
 62
140
370
9
  6
CONTINUOUS
 10
211.6000061035155966
 20
15.5089912414550799
 30
0.0
 11
212.5
 21
15.5089912414550799
 31
0.0
  0
LINE
  5
384
100
AcDbEntity
100
AcDbLine
  8
FOREGROUND
 62
140
370
9
  6
CONTINUOUS
 10
211.6000061035155966
 20
15.6089897155761701
 30
0.0
 11
212.5
 21
15.6089897155761701
 31
0.0
  0
LINE
  5
385
100
AcDbEntity
100
AcDbLine
  8
FOREGROUND
 62
140
370
9
  6
CONTINUOUS
 10
211.6000061035155966
 20
15.7089900970459002
 30
0.0
 11
212.5
 21
15.7089900970459002
 31
0.0
  0
LINE
  5
386
100
AcDbEntity
100
AcDbLine
  8
FOREGROUND
 62
140
370
9
  6
CONTINUOUS
 10
211.6000061035155966
 20
15.8089904785156197
 30
0.0
 11
212.5
 21
15.8089904785156197
 31
0.0
  0
LINE
  5
387
100
AcDbEntity
100
AcDbLine
  8
FOREGROUND
 62
140
370
9
  6
CONTINUOUS
 10
211.6000061035155966
 20
15.9089908599853498
 30
0.0
 11
212.5
 21
15.9089908599853498
 31
0.0
  0
LINE
  5
388
100
AcDbEntity
100
AcDbLine
  8
FOREGROUND
 62
140
370
9
  6
CONTINUOUS
 10
211.6000061035155966
 20
16.0874996185302699
 30
0.0
 11
212.4285888671875
 21
16.0874996185302699
 31
0.0
  0
LINE
  5
389
100
AcDbEntity
100
AcDbLine
  8
FOREGROUND
 62
140
370
9
  6
CONTINUOUS
 10
211.6000061035155966
 20
15.3113765716552699
 30
0.0
 11
212.5
 21
15.3113765716552699
 31
0.0
  0
ENDBLK
  5
38A
100
AcDbEntity
  8
0
100
AcDbBlockEnd
  0
BLOCK
  5
38B
100
AcDbEntity
  8
0
100
AcDbBlockBegin
  2
Blk4
 70
0
 10
0.0
 20
0.0
 30
0.0
  3
Blk4
  1

  0
LINE
  5
38C
100
AcDbEntity
100
AcDbLine
  8
FOREGROUND
 62
256
370
9
  6
CONTINUOUS
 10
194.9860229492188068
 20
15.4359855651855504
 30
0.0
 11
195.5135040283203125
 21
15.4359855651855504
 31
0.0
  0
LINE
  5
38D
100
AcDbEntity
100
AcDbLine
  8
FOREGROUND
 62
256
370
9
  6
CONTINUOUS
 10
195.6189727783203125
 20
15.4359855651855504
 30
0.0
 11
196.1464385986328125
 21
15.4359855651855504
 31
0.0
  0
LINE
  5
38E
100
AcDbEntity
100
AcDbLine
  8
FOREGROUND
 62
256
370
9
  6
CONTINUOUS
 10
196.2167510986328125
 20
15.4359855651855504
 30
0.0
 11
196.7442321777344034
 21
15.4359855651855504
 31
0.0
  0
LINE
  5
38F
100
AcDbEntity
100
AcDbLine
  8
FOREGROUND
 62
256
370
9
  6
CONTINUOUS
 10
196.8497314453125
 20
15.4359855651855504
 30
0.0
 11
197.1662139892578125
 21
15.4359855651855504
 31
0.0
  0
LINE
  5
390
100
AcDbEntity
100
AcDbLine
  8
FOREGROUND
 62
256
370
9
  6
CONTINUOUS
 10
197.2365264892578125
 20
15.4359855651855504
 30
0.0
 11
197.552978515625
 21
15.4359855651855504
 31
0.0
  0
LINE
  5
391
100
AcDbEntity
100
AcDbLine
  8
FOREGROUND
 62
256
370
9
  6
CONTINUOUS
 10
197.6936492919921875
 20
15.4359855651855504
 30
0.0
 11
197.9749450683594034
 21
15.4359855651855504
 31
0.0
  0
LINE
  5
392
100
AcDbEntity
100
AcDbLine
  8
FOREGROUND
 62
256
370
9
  6
CONTINUOUS
 10
198.2562713623046875
 20
15.4359855651855504
 30
0.0
 11
198.57275390625
 21
15.4359855651855504
 31
0.0
  0
LINE
  5
393
100
AcDbEntity
100
AcDbLine
  8
FOREGROUND
 62
256
370
9
  6
CONTINUOUS
 10
198.7133941650390909
 20
15.4359855651855504
 30
0.0
 11
198.8540496826171875
 21
15.4359855651855504
 31
0.0
  0
LINE
  5
394
100
AcDbEntity
100
AcDbLine
  8
FOREGROUND
 62
256
370
9
  6
CONTINUOUS
 10
199.1353759765625
 20
15.4359855651855504
 30
0.0
 11
199.3463439941405966
 21
15.4359855651855504
 31
0.0
  0
LINE
  5
395
100
AcDbEntity
100
AcDbLine
  8
FOREGROUND
 62
256
370
9
  6
CONTINUOUS
 10
199.6628265380859091
 20
15.4359855651855504
 30
0.0
 11
199.9089813232421875
 21
15.4359855651855504
 31
0.0
  0
LINE
  5
396
100
AcDbEntity
100
AcDbLine
  8
FOREGROUND
 62
256
370
9
  6
CONTINUOUS
 10
200.0496215820311932
 20
15.4359855651855504
 30
0.0
 11
200.0847930908203125
 21
15.4359855651855504
 31
0.0
  0
LINE
  5
397
100
AcDbEntity
100
AcDbLine
  8
FOREGROUND
 62
256
370
9
  6
CONTINUOUS
 10
200.1902923583984091
 20
15.4359855651855504
 30
0.0
 11
200.4715576171875
 21
15.4359855651855504
 31
0.0
  0
LINE
  5
398
100
AcDbEntity
100
AcDbLine
  8
FOREGROUND
 62
256
370
9
  6
CONTINUOUS
 10
200.5419158935546875
 20
15.4359855651855504
 30
0.0
 11
200.7528839111328125
 21
15.4359855651855504
 31
0.0
  0
LINE
  5
399
100
AcDbEntity
100
AcDbLine
  8
FOREGROUND
 62
256
370
9
  6
CONTINUOUS
 10
200.9286956787109091
 20
15.4359855651855504
 30
0.0
 11
201.2100067138671875
 21
15.4359855651855504
 31
0.0
  0
LINE
  5
39A
100
AcDbEntity
100
AcDbLine
  8
FOREGROUND
 62
256
370
9
  6
CONTINUOUS
 10
201.4210205078125
 20
15.4359855651855504
 30
0.0
 11
201.5616760253905966
 21
15.4359855651855504
 31
0.0
  0
LINE
  5
39B
100
AcDbEntity
100
AcDbLine
  8
FOREGROUND
 62
256
370
9
  6
CONTINUOUS
 10
202.018798828125
 20
15.4359855651855504
 30
0.0
 11
202.2649230957030966
 21
15.4359855651855504
 31
0.0
  0
LINE
  5
39C
100
AcDbEntity
100
AcDbLine
  8
FOREGROUND
 62
256
370
9
  6
CONTINUOUS
 10
202.4759368896484091
 20
15.4359855651855504
 30
0.0
 11
202.7572174072265909
 21
15.4359855651855504
 31
0.0
  0
LINE
  5
39D
100
AcDbEntity
100
AcDbLine
  8
FOREGROUND
 62
256
370
9
  6
CONTINUOUS
 10
202.8978729248046875
 20
15.4359855651855504
 30
0.0
 11
203.1791839599609091
 21
15.4359855651855504
 31
0.0
  0
LINE
  5
39E
100
AcDbEntity
100
AcDbLine
  8
FOREGROUND
 62
256
370
9
  6
CONTINUOUS
 10
203.2846832275390909
 20
15.4359855651855504
 30
0.0
 11
203.5660095214844034
 21
15.4359855651855504
 31
0.0
  0
LINE
  5
39F
100
AcDbEntity
100
AcDbLine
  8
FOREGROUND
 62
256
370
9
  6
CONTINUOUS
 10
203.6363220214844034
 20
15.4359855651855504
 30
0.0
 11
203.8824768066405966
 21
15.4359855651855504
 31
0.0
  0
LINE
  5
3A0
100
AcDbEntity
100
AcDbLine
  8
FOREGROUND
 62
256
370
9
  6
CONTINUOUS
 10
204.1989288330078125
 20
15.4359855651855504
 30
0.0
 11
204.2341003417969034
 21
15.4359855651855504
 31
0.0
  0
LINE
  5
3A1
100
AcDbEntity
100
AcDbLine
  8
FOREGROUND
 62
256
370
9
  6
CONTINUOUS
 10
204.409912109375
 20
15.4359855651855504
 30
0.0
 11
204.9373779296875
 21
15.4359855651855504
 31
0.0
  0
LINE
  5
3A2
100
AcDbEntity
100
AcDbLine
  8
FOREGROUND
 62
256
370
9
  6
CONTINUOUS
 10
205.0077056884765909
 20
15.4359855651855504
 30
0.0
 11
205.2538604736328125
 21
15.4359855651855504
 31
0.0
  0
LINE
  5
3A3
100
AcDbEntity
100
AcDbLine
  8
FOREGROUND
 62
256
370
9
  6
CONTINUOUS
 10
205.5703277587890909
 20
15.4359855651855504
 30
0.0
 11
205.6054840087890909
 21
15.4359855651855504
 31
0.0
  0
LINE
  5
3A4
100
AcDbEntity
100
AcDbLine
  8
FOREGROUND
 62
256
370
9
  6
CONTINUOUS
 10
205.7812957763671875
 20
15.4359855651855504
 30
0.0
 11
206.2735900878905966
 21
15.4359855651855504
 31
0.0
  0
LINE
  5
3A5
100
AcDbEntity
100
AcDbLine
  8
FOREGROUND
 62
256
370
9
  6
CONTINUOUS
 10
206.4142608642578125
 20
15.4359855651855504
 30
0.0
 11
206.625244140625
 21
15.4359855651855504
 31
0.0
  0
LINE
  5
3A6
100
AcDbEntity
100
AcDbLine
  8
FOREGROUND
 62
256
370
9
  6
CONTINUOUS
 10
206.8010559082030966
 20
15.4359855651855504
 30
0.0
 11
207.0823669433594034
 21
15.4359855651855504
 31
0.0
  0
LINE
  5
3A7
100
AcDbEntity
100
AcDbLine
  8
FOREGROUND
 62
256
370
9
  6
CONTINUOUS
 10
207.3636779785155966
 20
15.4359855651855504
 30
0.0
 11
207.6098022460938068
 21
15.4359855651855504
 31
0.0
  0
LINE
  5
3A8
100
AcDbEntity
100
AcDbLine
  8
FOREGROUND
 62
256
370
9
  6
CONTINUOUS
 10
208.3834228515625
 20
15.4359855651855504
 30
0.0
 11
208.6295776367188068
 21
15.4359855651855504
 31
0.0
  0
LINE
  5
3A9
100
AcDbEntity
100
AcDbLine
  8
FOREGROUND
 62
256
370
9
  6
CONTINUOUS
 10
208.875732421875
 20
15.4359855651855504
 30
0.0
 11
209.1218566894530966
 21
15.4359855651855504
 31
0.0
  0
LINE
  5
3AA
100
AcDbEntity
100
AcDbLine
  8
FOREGROUND
 62
256
370
9
  6
CONTINUOUS
 10
209.2625122070311932
 20
15.4359855651855504
 30
0.0
 11
209.2976684570311932
 21
15.4359855651855504
 31
0.0
  0
LINE
  5
3AB
100
AcDbEntity
100
AcDbLine
  8
FOREGROUND
 62
256
370
9
  6
CONTINUOUS
 10
209.4031677246094034
 20
15.4359855651855504
 30
0.0
 11
209.6844787597655966
 21
15.4359855651855504
 31
0.0
  0
LINE
  5
3AC
100
AcDbEntity
100
AcDbLine
  8
FOREGROUND
 62
256
370
9
  6
CONTINUOUS
 10
209.7899932861328125
 20
15.4359855651855504
 30
0.0
 11
210.2822723388671875
 21
15.4359855651855504
 31
0.0
  0
LINE
  5
3AD
100
AcDbEntity
100
AcDbLine
  8
FOREGROUND
 62
256
370
9
  6
CONTINUOUS
 10
210.4580841064453125
 20
15.4359855651855504
 30
0.0
 11
210.7393951416015909
 21
15.4359855651855504
 31
0.0
  0
LINE
  5
3AE
100
AcDbEntity
100
AcDbLine
  8
FOREGROUND
 62
256
370
9
  6
CONTINUOUS
 10
210.8800506591796875
 20
15.4359855651855504
 30
0.0
 11
211.1613616943359091
 21
15.4359855651855504
 31
0.0
  0
LINE
  5
3AF
100
AcDbEntity
100
AcDbLine
  8
FOREGROUND
 62
256
370
9
  6
CONTINUOUS
 10
195.0563659667969034
 20
15.4708290100097692
 30
0.0
 11
195.232177734375
 21
15.4708290100097692
 31
0.0
  0
LINE
  5
3B0
100
AcDbEntity
100
AcDbLine
  8
FOREGROUND
 62
256
370
9
  6
CONTINUOUS
 10
195.4431610107421875
 20
15.4708290100097692
 30
0.0
 11
195.5486602783203125
 21
15.4708290100097692
 31
0.0
  0
LINE
  5
3B1
100
AcDbEntity
100
AcDbLine
  8
FOREGROUND
 62
256
370
9
  6
CONTINUOUS
 10
195.7244720458984091
 20
15.4708290100097692
 30
0.0
 11
195.8651275634765909
 21
15.4708290100097692
 31
0.0
  0
LINE
  5
3B2
100
AcDbEntity
100
AcDbLine
  8
FOREGROUND
 62
256
370
9
  6
CONTINUOUS
 10
196.0761108398438068
 20
15.4708290100097692
 30
0.0
 11
196.1815948486328125
 21
15.4708290100097692
 31
0.0
  0
LINE
  5
3B3
100
AcDbEntity
100
AcDbLine
  8
FOREGROUND
 62
256
370
9
  6
CONTINUOUS
 10
196.287109375
 20
15.4708290100097692
 30
0.0
 11
196.4629211425780966
 21
15.4708290100097692
 31
0.0
  0
LINE
  5
3B4
100
AcDbEntity
100
AcDbLine
  8
FOREGROUND
 62
256
370
9
  6
CONTINUOUS
 10
196.6738891601561932
 20
15.4708290100097692
 30
0.0
 11
196.7793884277344034
 21
15.4708290100097692
 31
0.0
  0
LINE
  5
3B5
100
AcDbEntity
100
AcDbLine
  8
FOREGROUND
 62
256
370
9
  6
CONTINUOUS
 10
196.9552001953125
 20
15.4708290100097692
 30
0.0
 11
197.0958557128905966
 21
15.4708290100097692
 31
0.0
  0
LINE
  5
3B6
100
AcDbEntity
100
AcDbLine
  8
FOREGROUND
 62
256
370
9
  6
CONTINUOUS
 10
197.3068542480469034
 20
15.4708290100097692
 30
0.0
 11
197.482666015625
 21
15.4708290100097692
 31
0.0
  0
LINE
  5
3B7
100
AcDbEntity
100
AcDbLine
  8
FOREGROUND
 62
256
370
9
  6
CONTINUOUS
 10
197.7639923095703125
 20
15.4708290100097692
 30
0.0
 11
197.9398040771484091
 21
15.4708290100097692
 31
0.0
  0
LINE
  5
3B8
100
AcDbEntity
100
AcDbLine
  8
FOREGROUND
 62
256
370
9
  6
CONTINUOUS
 10
198.3617401123046875
 20
15.4708290100097692
 30
0.0
 11
198.5023956298828125
 21
15.4708290100097692
 31
0.0
  0
LINE
  5
3B9
100
AcDbEntity
100
AcDbLine
  8
FOREGROUND
 62
256
370
9
  6
CONTINUOUS
 10
198.7133941650390909
 20
15.4708290100097692
 30
0.0
 11
198.8189086914061932
 21
15.4708290100097692
 31
0.0
  0
LINE
  5
3BA
100
AcDbEntity
100
AcDbLine
  8
FOREGROUND
 62
256
370
9
  6
CONTINUOUS
 10
199.0650329589844034
 20
15.4708290100097692
 30
0.0
 11
199.1705322265625
 21
15.4708290100097692
 31
0.0
  0
LINE
  5
3BB
100
AcDbEntity
100
AcDbLine
  8
FOREGROUND
 62
256
370
9
  6
CONTINUOUS
 10
199.3463439941405966
 20
15.4708290100097692
 30
0.0
 11
199.4518432617188068
 21
15.4708290100097692
 31
0.0
  0
LINE
  5
3BC
100
AcDbEntity
100
AcDbLine
  8
FOREGROUND
 62
256
370
9
  6
CONTINUOUS
 10
199.768310546875
 20
15.4708290100097692
 30
0.0
 11
199.8386383056640909
 21
15.4708290100097692
 31
0.0
  0
LINE
  5
3BD
100
AcDbEntity
100
AcDbLine
  8
FOREGROUND
 62
256
370
9
  6
CONTINUOUS
 10
200.0496215820311932
 20
15.4708290100097692
 30
0.0
 11
200.0847930908203125
 21
15.4708290100097692
 31
0.0
  0
LINE
  5
3BE
100
AcDbEntity
100
AcDbLine
  8
FOREGROUND
 62
256
370
9
  6
CONTINUOUS
 10
200.2957458496094034
 20
15.4708290100097692
 30
0.0
 11
200.4364166259765909
 21
15.4708290100097692
 31
0.0
  0
LINE
  5
3BF
100
AcDbEntity
100
AcDbLine
  8
FOREGROUND
 62
256
370
9
  6
CONTINUOUS
 10
200.6122283935546875
 20
15.4708290100097692
 30
0.0
 11
200.7177276611328125
 21
15.4708290100097692
 31
0.0
  0
LINE
  5
3C0
100
AcDbEntity
100
AcDbLine
  8
FOREGROUND
 62
256
370
9
  6
CONTINUOUS
 10
200.9990386962890909
 20
15.4708290100097692
 30
0.0
 11
201.1397094726561932
 21
15.4708290100097692
 31
0.0
  0
LINE
  5
3C1
100
AcDbEntity
100
AcDbLine
  8
FOREGROUND
 62
256
370
9
  6
CONTINUOUS
 10
201.3155212402344034
 20
15.4708290100097692
 30
0.0
 11
201.4210205078125
 21
15.4708290100097692
 31
0.0
  0
LINE
  5
3C2
100
AcDbEntity
100
AcDbLine
  8
FOREGROUND
 62
256
370
9
  6
CONTINUOUS
 10
201.5616760253905966
 20
15.4708290100097692
 30
0.0
 11
201.6319732666015909
 21
15.4708290100097692
 31
0.0
  0
LINE
  5
3C3
100
AcDbEntity
100
AcDbLine
  8
FOREGROUND
 62
256
370
9
  6
CONTINUOUS
 10
201.9484558105469034
 20
15.4708290100097692
 30
0.0
 11
202.089111328125
 21
15.4708290100097692
 31
0.0
  0
LINE
  5
3C4
100
AcDbEntity
100
AcDbLine
  8
FOREGROUND
 62
256
370
9
  6
CONTINUOUS
 10
202.2649230957030966
 20
15.4708290100097692
 30
0.0
 11
202.3352813720703125
 21
15.4708290100097692
 31
0.0
  0
LINE
  5
3C5
100
AcDbEntity
100
AcDbLine
  8
FOREGROUND
 62
256
370
9
  6
CONTINUOUS
 10
202.5814056396484091
 20
15.4708290100097692
 30
0.0
 11
202.7220611572265909
 21
15.4708290100097692
 31
0.0
  0
LINE
  5
3C6
100
AcDbEntity
100
AcDbLine
  8
FOREGROUND
 62
256
370
9
  6
CONTINUOUS
 10
202.9682159423828125
 20
15.4708290100097692
 30
0.0
 11
203.1088714599609091
 21
15.4708290100097692
 31
0.0
  0
LINE
  5
3C7
100
AcDbEntity
100
AcDbLine
  8
FOREGROUND
 62
256
370
9
  6
CONTINUOUS
 10
203.3901977539061932
 20
15.4708290100097692
 30
0.0
 11
203.4956512451171875
 21
15.4708290100097692
 31
0.0
  0
LINE
  5
3C8
100
AcDbEntity
100
AcDbLine
  8
FOREGROUND
 62
256
370
9
  6
CONTINUOUS
 10
203.7418212890625
 20
15.4708290100097692
 30
0.0
 11
203.8121337890625
 21
15.4708290100097692
 31
0.0
  0
LINE
  5
3C9
100
AcDbEntity
100
AcDbLine
  8
FOREGROUND
 62
256
370
9
  6
CONTINUOUS
 10
204.1989288330078125
 20
15.4708290100097692
 30
0.0
 11
204.2692565917969034
 21
15.4708290100097692
 31
0.0
  0
LINE
  5
3CA
100
AcDbEntity
100
AcDbLine
  8
FOREGROUND
 62
256
370
9
  6
CONTINUOUS
 10
204.4802703857421875
 20
15.4708290100097692
 30
0.0
 11
204.6560821533203125
 21
15.4708290100097692
 31
0.0
  0
LINE
  5
3CB
100
AcDbEntity
100
AcDbLine
  8
FOREGROUND
 62
256
370
9
  6
CONTINUOUS
 10
204.8670349121094034
 20
15.4708290100097692
 30
0.0
 11
204.9725494384765909
 21
15.4708290100097692
 31
0.0
  0
LINE
  5
3CC
100
AcDbEntity
100
AcDbLine
  8
FOREGROUND
 62
256
370
9
  6
CONTINUOUS
 10
205.1131896972655966
 20
15.4708290100097692
 30
0.0
 11
205.1835174560546875
 21
15.4708290100097692
 31
0.0
  0
LINE
  5
3CD
100
AcDbEntity
100
AcDbLine
  8
FOREGROUND
 62
256
370
9
  6
CONTINUOUS
 10
205.5703277587890909
 20
15.4708290100097692
 30
0.0
 11
205.6406402587890909
 21
15.4708290100097692
 31
0.0
  0
LINE
  5
3CE
100
AcDbEntity
100
AcDbLine
  8
FOREGROUND
 62
256
370
9
  6
CONTINUOUS
 10
205.8868103027344034
 20
15.4708290100097692
 30
0.0
 11
205.9922943115234091
 21
15.4708290100097692
 31
0.0
  0
LINE
  5
3CF
100
AcDbEntity
100
AcDbLine
  8
FOREGROUND
 62
256
370
9
  6
CONTINUOUS
 10
206.1681060791015909
 20
15.4708290100097692
 30
0.0
 11
206.3087768554688068
 21
15.4708290100097692
 31
0.0
  0
LINE
  5
3D0
100
AcDbEntity
100
AcDbLine
  8
FOREGROUND
 62
256
370
9
  6
CONTINUOUS
 10
206.4845886230469034
 20
15.4708290100097692
 30
0.0
 11
206.590087890625
 21
15.4708290100097692
 31
0.0
  0
LINE
  5
3D1
100
AcDbEntity
100
AcDbLine
  8
FOREGROUND
 62
256
370
9
  6
CONTINUOUS
 10
206.8713531494140909
 20
15.4708290100097692
 30
0.0
 11
207.0120239257811932
 21
15.4708290100097692
 31
0.0
  0
LINE
  5
3D2
100
AcDbEntity
100
AcDbLine
  8
FOREGROUND
 62
256
370
9
  6
CONTINUOUS
 10
207.3285217285155966
 20
15.4708290100097692
 30
0.0
 11
207.4339904785155966
 21
15.4708290100097692
 31
0.0
  0
LINE
  5
3D3
100
AcDbEntity
100
AcDbLine
  8
FOREGROUND
 62
256
370
9
  6
CONTINUOUS
 10
207.6098022460938068
 20
15.4708290100097692
 30
0.0
 11
207.6801605224609091
 21
15.4708290100097692
 31
0.0
  0
LINE
  5
3D4
100
AcDbEntity
100
AcDbLine
  8
FOREGROUND
 62
256
370
9
  6
CONTINUOUS
 10
208.3130950927734091
 20
15.4708290100097692
 30
0.0
 11
208.4537658691405966
 21
15.4708290100097692
 31
0.0
  0
LINE
  5
3D5
100
AcDbEntity
100
AcDbLine
  8
FOREGROUND
 62
256
370
9
  6
CONTINUOUS
 10
208.6295776367188068
 20
15.4708290100097692
 30
0.0
 11
208.6998901367188068
 21
15.4708290100097692
 31
0.0
  0
LINE
  5
3D6
100
AcDbEntity
100
AcDbLine
  8
FOREGROUND
 62
256
370
9
  6
CONTINUOUS
 10
208.981201171875
 20
15.4708290100097692
 30
0.0
 11
209.0515441894530966
 21
15.4708290100097692
 31
0.0
  0
LINE
  5
3D7
100
AcDbEntity
100
AcDbLine
  8
FOREGROUND
 62
256
370
9
  6
CONTINUOUS
 10
209.2625122070311932
 20
15.4708290100097692
 30
0.0
 11
209.2976684570311932
 21
15.4708290100097692
 31
0.0
  0
LINE
  5
3D8
100
AcDbEntity
100
AcDbLine
  8
FOREGROUND
 62
256
370
9
  6
CONTINUOUS
 10
209.5086669921875
 20
15.4708290100097692
 30
0.0
 11
209.6493225097655966
 21
15.4708290100097692
 31
0.0
  0
LINE
  5
3D9
100
AcDbEntity
100
AcDbLine
  8
FOREGROUND
 62
256
370
9
  6
CONTINUOUS
 10
209.8954467773438068
 20
15.4708290100097692
 30
0.0
 11
210.0009613037109091
 21
15.4708290100097692
 31
0.0
  0
LINE
  5
3DA
100
AcDbEntity
100
AcDbLine
  8
FOREGROUND
 62
256
370
9
  6
CONTINUOUS
 10
210.1767730712890909
 20
15.4708290100097692
 30
0.0
 11
210.3174285888671875
 21
15.4708290100097692
 31
0.0
  0
LINE
  5
3DB
100
AcDbEntity
100
AcDbLine
  8
FOREGROUND
 62
256
370
9
  6
CONTINUOUS
 10
210.5635833740234091
 20
15.4708290100097692
 30
0.0
 11
210.7042541503905966
 21
15.4708290100097692
 31
0.0
  0
LINE
  5
3DC
100
AcDbEntity
100
AcDbLine
  8
FOREGROUND
 62
256
370
9
  6
CONTINUOUS
 10
210.9503784179688068
 20
15.4708290100097692
 30
0.0
 11
211.0910186767578125
 21
15.4708290100097692
 31
0.0
  0
LINE
  5
3DD
100
AcDbEntity
100
AcDbLine
  8
FOREGROUND
 62
256
370
9
  6
CONTINUOUS
 10
195.1266784667969034
 20
15.5056686401367205
 30
0.0
 11
195.1970367431640909
 21
15.5056686401367205
 31
0.0
  0
LINE
  5
3DE
100
AcDbEntity
100
AcDbLine
  8
FOREGROUND
 62
256
370
9
  6
CONTINUOUS
 10
195.4783020019530966
 20
15.5056686401367205
 30
0.0
 11
195.5486602783203125
 21
15.5056686401367205
 31
0.0
  0
LINE
  5
3DF
100
AcDbEntity
100
AcDbLine
  8
FOREGROUND
 62
256
370
9
  6
CONTINUOUS
 10
195.7596282958984091
 20
15.5056686401367205
 30
0.0
 11
195.8299713134765909
 21
15.5056686401367205
 31
0.0
  0
LINE
  5
3E0
100
AcDbEntity
100
AcDbLine
  8
FOREGROUND
 62
256
370
9
  6
CONTINUOUS
 10
196.1112823486328125
 20
15.5056686401367205
 30
0.0
 11
196.1815948486328125
 21
15.5056686401367205
 31
0.0
  0
LINE
  5
3E1
100
AcDbEntity
100
AcDbLine
  8
FOREGROUND
 62
256
370
9
  6
CONTINUOUS
 10
196.3574066162109091
 20
15.5056686401367205
 30
0.0
 11
196.4277648925780966
 21
15.5056686401367205
 31
0.0
  0
LINE
  5
3E2
100
AcDbEntity
100
AcDbLine
  8
FOREGROUND
 62
256
370
9
  6
CONTINUOUS
 10
196.7090759277344034
 20
15.5056686401367205
 30
0.0
 11
196.7793884277344034
 21
15.5056686401367205
 31
0.0
  0
LINE
  5
3E3
100
AcDbEntity
100
AcDbLine
  8
FOREGROUND
 62
256
370
9
  6
CONTINUOUS
 10
196.9904022216796875
 20
15.5056686401367205
 30
0.0
 11
197.0606994628905966
 21
15.5056686401367205
 31
0.0
  0
LINE
  5
3E4
100
AcDbEntity
100
AcDbLine
  8
FOREGROUND
 62
256
370
9
  6
CONTINUOUS
 10
197.3420257568359091
 20
15.5056686401367205
 30
0.0
 11
197.4474792480469034
 21
15.5056686401367205
 31
0.0
  0
LINE
  5
3E5
100
AcDbEntity
100
AcDbLine
  8
FOREGROUND
 62
256
370
9
  6
CONTINUOUS
 10
197.8343048095703125
 20
15.5056686401367205
 30
0.0
 11
197.9046173095703125
 21
15.5056686401367205
 31
0.0
  0
LINE
  5
3E6
100
AcDbEntity
100
AcDbLine
  8
FOREGROUND
 62
256
370
9
  6
CONTINUOUS
 10
198.3969268798828125
 20
15.5056686401367205
 30
0.0
 11
198.4672393798828125
 21
15.5056686401367205
 31
0.0
  0
LINE
  5
3E7
100
AcDbEntity
100
AcDbLine
  8
FOREGROUND
 62
256
370
9
  6
CONTINUOUS
 10
198.6782379150390909
 20
15.5056686401367205
 30
0.0
 11
198.7837066650390909
 21
15.5056686401367205
 31
0.0
  0
LINE
  5
3E8
100
AcDbEntity
100
AcDbLine
  8
FOREGROUND
 62
256
370
9
  6
CONTINUOUS
 10
199.0298614501953125
 20
15.5056686401367205
 30
0.0
 11
199.1353759765625
 21
15.5056686401367205
 31
0.0
  0
LINE
  5
3E9
100
AcDbEntity
100
AcDbLine
  8
FOREGROUND
 62
256
370
9
  6
CONTINUOUS
 10
199.4166564941405966
 20
15.5056686401367205
 30
0.0
 11
199.5221557617188068
 21
15.5056686401367205
 31
0.0
  0
LINE
  5
3EA
100
AcDbEntity
100
AcDbLine
  8
FOREGROUND
 62
256
370
9
  6
CONTINUOUS
 10
199.803466796875
 20
15.5056686401367205
 30
0.0
 11
199.8386383056640909
 21
15.5056686401367205
 31
0.0
  0
LINE
  5
3EB
100
AcDbEntity
100
AcDbLine
  8
FOREGROUND
 62
256
370
9
  6
CONTINUOUS
 10
200.0496215820311932
 20
15.5056686401367205
 30
0.0
 11
200.1199340820311932
 21
15.5056686401367205
 31
0.0
  0
LINE
  5
3EC
100
AcDbEntity
100
AcDbLine
  8
FOREGROUND
 62
256
370
9
  6
CONTINUOUS
 10
200.3309173583984091
 20
15.5056686401367205
 30
0.0
 11
200.4012603759765909
 21
15.5056686401367205
 31
0.0
  0
LINE
  5
3ED
100
AcDbEntity
100
AcDbLine
  8
FOREGROUND
 62
256
370
9
  6
CONTINUOUS
 10
200.6473999023438068
 20
15.5056686401367205
 30
0.0
 11
200.6825714111328125
 21
15.5056686401367205
 31
0.0
  0
LINE
  5
3EE
100
AcDbEntity
100
AcDbLine
  8
FOREGROUND
 62
256
370
9
  6
CONTINUOUS
 10
201.0341949462890909
 20
15.5056686401367205
 30
0.0
 11
201.1397094726561932
 21
15.5056686401367205
 31
0.0
  0
LINE
  5
3EF
100
AcDbEntity
100
AcDbLine
  8
FOREGROUND
 62
256
370
9
  6
CONTINUOUS
 10
201.3155212402344034
 20
15.5056686401367205
 30
0.0
 11
201.3858184814453125
 21
15.5056686401367205
 31
0.0
  0
LINE
  5
3F0
100
AcDbEntity
100
AcDbLine
  8
FOREGROUND
 62
256
370
9
  6
CONTINUOUS
 10
201.5968322753905966
 20
15.5056686401367205
 30
0.0
 11
201.6671447753905966
 21
15.5056686401367205
 31
0.0
  0
LINE
  5
3F1
100
AcDbEntity
100
AcDbLine
  8
FOREGROUND
 62
256
370
9
  6
CONTINUOUS
 10
201.9132995605469034
 20
15.5056686401367205
 30
0.0
 11
202.018798828125
 21
15.5056686401367205
 31
0.0
  0
LINE
  5
3F2
100
AcDbEntity
100
AcDbLine
  8
FOREGROUND
 62
256
370
9
  6
CONTINUOUS
 10
202.3352813720703125
 20
15.5056686401367205
 30
0.0
 11
202.4055938720703125
 21
15.5056686401367205
 31
0.0
  0
LINE
  5
3F3
100
AcDbEntity
100
AcDbLine
  8
FOREGROUND
 62
256
370
9
  6
CONTINUOUS
 10
202.6165466308594034
 20
15.5056686401367205
 30
0.0
 11
202.6868896484375
 21
15.5056686401367205
 31
0.0
  0
LINE
  5
3F4
100
AcDbEntity
100
AcDbLine
  8
FOREGROUND
 62
256
370
9
  6
CONTINUOUS
 10
203.0385284423828125
 20
15.5056686401367205
 30
0.0
 11
203.1088714599609091
 21
15.5056686401367205
 31
0.0
  0
LINE
  5
3F5
100
AcDbEntity
100
AcDbLine
  8
FOREGROUND
 62
256
370
9
  6
CONTINUOUS
 10
203.4253387451171875
 20
15.5056686401367205
 30
0.0
 11
203.4956512451171875
 21
15.5056686401367205
 31
0.0
  0
LINE
  5
3F6
100
AcDbEntity
100
AcDbLine
  8
FOREGROUND
 62
256
370
9
  6
CONTINUOUS
 10
203.7769622802734091
 20
15.5056686401367205
 30
0.0
 11
203.8121337890625
 21
15.5056686401367205
 31
0.0
  0
LINE
  5
3F7
100
AcDbEntity
100
AcDbLine
  8
FOREGROUND
 62
256
370
9
  6
CONTINUOUS
 10
204.1637878417969034
 20
15.5056686401367205
 30
0.0
 11
204.2692565917969034
 21
15.5056686401367205
 31
0.0
  0
LINE
  5
3F8
100
AcDbEntity
100
AcDbLine
  8
FOREGROUND
 62
256
370
9
  6
CONTINUOUS
 10
204.5505676269530966
 20
15.5056686401367205
 30
0.0
 11
204.6209106445311932
 21
15.5056686401367205
 31
0.0
  0
LINE
  5
3F9
100
AcDbEntity
100
AcDbLine
  8
FOREGROUND
 62
256
370
9
  6
CONTINUOUS
 10
204.9022064208984091
 20
15.5056686401367205
 30
0.0
 11
204.9725494384765909
 21
15.5056686401367205
 31
0.0
  0
LINE
  5
3FA
100
AcDbEntity
100
AcDbLine
  8
FOREGROUND
 62
256
370
9
  6
CONTINUOUS
 10
205.1483612060546875
 20
15.5056686401367205
 30
0.0
 11
205.1835174560546875
 21
15.5056686401367205
 31
0.0
  0
LINE
  5
3FB
100
AcDbEntity
100
AcDbLine
  8
FOREGROUND
 62
256
370
9
  6
CONTINUOUS
 10
205.5351715087890909
 20
15.5056686401367205
 30
0.0
 11
205.6406402587890909
 21
15.5056686401367205
 31
0.0
  0
LINE
  5
3FC
100
AcDbEntity
100
AcDbLine
  8
FOREGROUND
 62
256
370
9
  6
CONTINUOUS
 10
205.9219512939453125
 20
15.5056686401367205
 30
0.0
 11
205.9922943115234091
 21
15.5056686401367205
 31
0.0
  0
LINE
  5
3FD
100
AcDbEntity
100
AcDbLine
  8
FOREGROUND
 62
256
370
9
  6
CONTINUOUS
 10
206.2384338378905966
 20
15.5056686401367205
 30
0.0
 11
206.3439178466796875
 21
15.5056686401367205
 31
0.0
  0
LINE
  5
3FE
100
AcDbEntity
100
AcDbLine
  8
FOREGROUND
 62
256
370
9
  6
CONTINUOUS
 10
206.5197296142578125
 20
15.5056686401367205
 30
0.0
 11
206.5549011230469034
 21
15.5056686401367205
 31
0.0
  0
LINE
  5
3FF
100
AcDbEntity
100
AcDbLine
  8
FOREGROUND
 62
256
370
9
  6
CONTINUOUS
 10
206.9065551757811932
 20
15.5056686401367205
 30
0.0
 11
207.0120239257811932
 21
15.5056686401367205
 31
0.0
  0
LINE
  5
400
100
AcDbEntity
100
AcDbLine
  8
FOREGROUND
 62
256
370
9
  6
CONTINUOUS
 10
207.2933502197265909
 20
15.5056686401367205
 30
0.0
 11
207.3988342285155966
 21
15.5056686401367205
 31
0.0
  0
LINE
  5
401
100
AcDbEntity
100
AcDbLine
  8
FOREGROUND
 62
256
370
9
  6
CONTINUOUS
 10
207.6801605224609091
 20
15.5056686401367205
 30
0.0
 11
207.7153167724609091
 21
15.5056686401367205
 31
0.0
  0
LINE
  5
402
100
AcDbEntity
100
AcDbLine
  8
FOREGROUND
 62
256
370
9
  6
CONTINUOUS
 10
208.2779388427734091
 20
15.5056686401367205
 30
0.0
 11
208.3834228515625
 21
15.5056686401367205
 31
0.0
  0
LINE
  5
403
100
AcDbEntity
100
AcDbLine
  8
FOREGROUND
 62
256
370
9
  6
CONTINUOUS
 10
208.6647186279296875
 20
15.5056686401367205
 30
0.0
 11
208.7702178955078125
 21
15.5056686401367205
 31
0.0
  0
LINE
  5
404
100
AcDbEntity
100
AcDbLine
  8
FOREGROUND
 62
256
370
9
  6
CONTINUOUS
 10
209.0163421630859091
 20
15.5056686401367205
 30
0.0
 11
209.0515441894530966
 21
15.5056686401367205
 31
0.0
  0
LINE
  5
405
100
AcDbEntity
100
AcDbLine
  8
FOREGROUND
 62
256
370
9
  6
CONTINUOUS
 10
209.2625122070311932
 20
15.5056686401367205
 30
0.0
 11
209.3328399658203125
 21
15.5056686401367205
 31
0.0
  0
LINE
  5
406
100
AcDbEntity
100
AcDbLine
  8
FOREGROUND
 62
256
370
9
  6
CONTINUOUS
 10
209.5438232421875
 20
15.5056686401367205
 30
0.0
 11
209.6141815185546875
 21
15.5056686401367205
 31
0.0
  0
LINE
  5
407
100
AcDbEntity
100
AcDbLine
  8
FOREGROUND
 62
256
370
9
  6
CONTINUOUS
 10
209.9306335449219034
 20
15.5056686401367205
 30
0.0
 11
210.0009613037109091
 21
15.5056686401367205
 31
0.0
  0
LINE
  5
408
100
AcDbEntity
100
AcDbLine
  8
FOREGROUND
 62
256
370
9
  6
CONTINUOUS
 10
210.2471008300780966
 20
15.5056686401367205
 30
0.0
 11
210.3525848388671875
 21
15.5056686401367205
 31
0.0
  0
LINE
  5
409
100
AcDbEntity
100
AcDbLine
  8
FOREGROUND
 62
256
370
9
  6
CONTINUOUS
 10
210.5987396240234091
 20
15.5056686401367205
 30
0.0
 11
210.6690521240234091
 21
15.5056686401367205
 31
0.0
  0
LINE
  5
40A
100
AcDbEntity
100
AcDbLine
  8
FOREGROUND
 62
256
370
9
  6
CONTINUOUS
 10
211.0207061767578125
 20
15.5056686401367205
 30
0.0
 11
211.0910186767578125
 21
15.5056686401367205
 31
0.0
  0
LINE
  5
40B
100
AcDbEntity
100
AcDbLine
  8
FOREGROUND
 62
256
370
9
  6
CONTINUOUS
 10
195.1266784667969034
 20
15.5405120849609393
 30
0.0
 11
195.1970367431640909
 21
15.5405120849609393
 31
0.0
  0
LINE
  5
40C
100
AcDbEntity
100
AcDbLine
  8
FOREGROUND
 62
256
370
9
  6
CONTINUOUS
 10
195.5486602783203125
 20
15.5405120849609393
 30
0.0
 11
195.5838165283203125
 21
15.5405120849609393
 31
0.0
  0
LINE
  5
40D
100
AcDbEntity
100
AcDbLine
  8
FOREGROUND
 62
256
370
9
  6
CONTINUOUS
 10
195.7596282958984091
 20
15.5405120849609393
 30
0.0
 11
195.8299713134765909
 21
15.5405120849609393
 31
0.0
  0
LINE
  5
40E
100
AcDbEntity
100
AcDbLine
  8
FOREGROUND
 62
256
370
9
  6
CONTINUOUS
 10
196.1464385986328125
 20
15.5405120849609393
 30
0.0
 11
196.2167510986328125
 21
15.5405120849609393
 31
0.0
  0
LINE
  5
40F
100
AcDbEntity
100
AcDbLine
  8
FOREGROUND
 62
256
370
9
  6
CONTINUOUS
 10
196.3574066162109091
 20
15.5405120849609393
 30
0.0
 11
196.4277648925780966
 21
15.5405120849609393
 31
0.0
  0
LINE
  5
410
100
AcDbEntity
100
AcDbLine
  8
FOREGROUND
 62
256
370
9
  6
CONTINUOUS
 10
196.7793884277344034
 20
15.5405120849609393
 30
0.0
 11
196.8145294189453125
 21
15.5405120849609393
 31
0.0
  0
LINE
  5
411
100
AcDbEntity
100
AcDbLine
  8
FOREGROUND
 62
256
370
9
  6
CONTINUOUS
 10
196.9904022216796875
 20
15.5405120849609393
 30
0.0
 11
197.0606994628905966
 21
15.5405120849609393
 31
0.0
  0
LINE
  5
412
100
AcDbEntity
100
AcDbLine
  8
FOREGROUND
 62
256
370
9
  6
CONTINUOUS
 10
197.3068542480469034
 20
15.5405120849609393
 30
0.0
 11
197.4474792480469034
 21
15.5405120849609393
 31
0.0
  0
LINE
  5
413
100
AcDbEntity
100
AcDbLine
  8
FOREGROUND
 62
256
370
9
  6
CONTINUOUS
 10
197.8343048095703125
 20
15.5405120849609393
 30
0.0
 11
197.9046173095703125
 21
15.5405120849609393
 31
0.0
  0
LINE
  5
414
100
AcDbEntity
100
AcDbLine
  8
FOREGROUND
 62
256
370
9
  6
CONTINUOUS
 10
198.3969268798828125
 20
15.5405120849609393
 30
0.0
 11
198.4672393798828125
 21
15.5405120849609393
 31
0.0
  0
LINE
  5
415
100
AcDbEntity
100
AcDbLine
  8
FOREGROUND
 62
256
370
9
  6
CONTINUOUS
 10
198.6782379150390909
 20
15.5405120849609393
 30
0.0
 11
198.7837066650390909
 21
15.5405120849609393
 31
0.0
  0
LINE
  5
416
100
AcDbEntity
100
AcDbLine
  8
FOREGROUND
 62
256
370
9
  6
CONTINUOUS
 10
198.9947204589844034
 20
15.5405120849609393
 30
0.0
 11
199.1001892089844034
 21
15.5405120849609393
 31
0.0
  0
LINE
  5
417
100
AcDbEntity
100
AcDbLine
  8
FOREGROUND
 62
256
370
9
  6
CONTINUOUS
 10
199.4518432617188068
 20
15.5405120849609393
 30
0.0
 11
199.5573120117188068
 21
15.5405120849609393
 31
0.0
  0
LINE
  5
418
100
AcDbEntity
100
AcDbLine
  8
FOREGROUND
 62
256
370
9
  6
CONTINUOUS
 10
199.803466796875
 20
15.5405120849609393
 30
0.0
 11
199.8386383056640909
 21
15.5405120849609393
 31
0.0
  0
LINE
  5
419
100
AcDbEntity
100
AcDbLine
  8
FOREGROUND
 62
256
370
9
  6
CONTINUOUS
 10
200.0144500732421875
 20
15.5405120849609393
 30
0.0
 11
200.1551055908203125
 21
15.5405120849609393
 31
0.0
  0
LINE
  5
41A
100
AcDbEntity
100
AcDbLine
  8
FOREGROUND
 62
256
370
9
  6
CONTINUOUS
 10
200.3309173583984091
 20
15.5405120849609393
 30
0.0
 11
200.4012603759765909
 21
15.5405120849609393
 31
0.0
  0
LINE
  5
41B
100
AcDbEntity
100
AcDbLine
  8
FOREGROUND
 62
256
370
9
  6
CONTINUOUS
 10
200.6825714111328125
 20
15.5405120849609393
 30
0.0
 11
200.7177276611328125
 21
15.5405120849609393
 31
0.0
  0
LINE
  5
41C
100
AcDbEntity
100
AcDbLine
  8
FOREGROUND
 62
256
370
9
  6
CONTINUOUS
 10
201.0341949462890909
 20
15.5405120849609393
 30
0.0
 11
201.1397094726561932
 21
15.5405120849609393
 31
0.0
  0
LINE
  5
41D
100
AcDbEntity
100
AcDbLine
  8
FOREGROUND
 62
256
370
9
  6
CONTINUOUS
 10
201.3155212402344034
 20
15.5405120849609393
 30
0.0
 11
201.3858184814453125
 21
15.5405120849609393
 31
0.0
  0
LINE
  5
41E
100
AcDbEntity
100
AcDbLine
  8
FOREGROUND
 62
256
370
9
  6
CONTINUOUS
 10
201.6319732666015909
 20
15.5405120849609393
 30
0.0
 11
201.7022857666015909
 21
15.5405120849609393
 31
0.0
  0
LINE
  5
41F
100
AcDbEntity
100
AcDbLine
  8
FOREGROUND
 62
256
370
9
  6
CONTINUOUS
 10
201.9132995605469034
 20
15.5405120849609393
 30
0.0
 11
202.018798828125
 21
15.5405120849609393
 31
0.0
  0
LINE
  5
420
100
AcDbEntity
100
AcDbLine
  8
FOREGROUND
 62
256
370
9
  6
CONTINUOUS
 10
202.3704223632811932
 20
15.5405120849609393
 30
0.0
 11
202.4407348632811932
 21
15.5405120849609393
 31
0.0
  0
LINE
  5
421
100
AcDbEntity
100
AcDbLine
  8
FOREGROUND
 62
256
370
9
  6
CONTINUOUS
 10
202.6165466308594034
 20
15.5405120849609393
 30
0.0
 11
202.6868896484375
 21
15.5405120849609393
 31
0.0
  0
LINE
  5
422
100
AcDbEntity
100
AcDbLine
  8
FOREGROUND
 62
256
370
9
  6
CONTINUOUS
 10
203.0385284423828125
 20
15.5405120849609393
 30
0.0
 11
203.1088714599609091
 21
15.5405120849609393
 31
0.0
  0
LINE
  5
423
100
AcDbEntity
100
AcDbLine
  8
FOREGROUND
 62
256
370
9
  6
CONTINUOUS
 10
203.4253387451171875
 20
15.5405120849609393
 30
0.0
 11
203.4956512451171875
 21
15.5405120849609393
 31
0.0
  0
LINE
  5
424
100
AcDbEntity
100
AcDbLine
  8
FOREGROUND
 62
256
370
9
  6
CONTINUOUS
 10
203.7769622802734091
 20
15.5405120849609393
 30
0.0
 11
203.8121337890625
 21
15.5405120849609393
 31
0.0
  0
LINE
  5
425
100
AcDbEntity
100
AcDbLine
  8
FOREGROUND
 62
256
370
9
  6
CONTINUOUS
 10
204.1637878417969034
 20
15.5405120849609393
 30
0.0
 11
204.2692565917969034
 21
15.5405120849609393
 31
0.0
  0
LINE
  5
426
100
AcDbEntity
100
AcDbLine
  8
FOREGROUND
 62
256
370
9
  6
CONTINUOUS
 10
204.5505676269530966
 20
15.5405120849609393
 30
0.0
 11
204.6209106445311932
 21
15.5405120849609393
 31
0.0
  0
LINE
  5
427
100
AcDbEntity
100
AcDbLine
  8
FOREGROUND
 62
256
370
9
  6
CONTINUOUS
 10
204.9725494384765909
 20
15.5405120849609393
 30
0.0
 11
205.0077056884765909
 21
15.5405120849609393
 31
0.0
  0
LINE
  5
428
100
AcDbEntity
100
AcDbLine
  8
FOREGROUND
 62
256
370
9
  6
CONTINUOUS
 10
205.1483612060546875
 20
15.5405120849609393
 30
0.0
 11
205.1835174560546875
 21
15.5405120849609393
 31
0.0
  0
LINE
  5
429
100
AcDbEntity
100
AcDbLine
  8
FOREGROUND
 62
256
370
9
  6
CONTINUOUS
 10
205.5351715087890909
 20
15.5405120849609393
 30
0.0
 11
205.6406402587890909
 21
15.5405120849609393
 31
0.0
  0
LINE
  5
42A
100
AcDbEntity
100
AcDbLine
  8
FOREGROUND
 62
256
370
9
  6
CONTINUOUS
 10
205.9219512939453125
 20
15.5405120849609393
 30
0.0
 11
205.9922943115234091
 21
15.5405120849609393
 31
0.0
  0
LINE
  5
42B
100
AcDbEntity
100
AcDbLine
  8
FOREGROUND
 62
256
370
9
  6
CONTINUOUS
 10
206.2735900878905966
 20
15.5405120849609393
 30
0.0
 11
206.3790893554688068
 21
15.5405120849609393
 31
0.0
  0
LINE
  5
42C
100
AcDbEntity
100
AcDbLine
  8
FOREGROUND
 62
256
370
9
  6
CONTINUOUS
 10
206.5549011230469034
 20
15.5405120849609393
 30
0.0
 11
206.590087890625
 21
15.5405120849609393
 31
0.0
  0
LINE
  5
42D
100
AcDbEntity
100
AcDbLine
  8
FOREGROUND
 62
256
370
9
  6
CONTINUOUS
 10
206.9065551757811932
 20
15.5405120849609393
 30
0.0
 11
207.0120239257811932
 21
15.5405120849609393
 31
0.0
  0
LINE
  5
42E
100
AcDbEntity
100
AcDbLine
  8
FOREGROUND
 62
256
370
9
  6
CONTINUOUS
 10
207.2933502197265909
 20
15.5405120849609393
 30
0.0
 11
207.3988342285155966
 21
15.5405120849609393
 31
0.0
  0
LINE
  5
42F
100
AcDbEntity
100
AcDbLine
  8
FOREGROUND
 62
256
370
9
  6
CONTINUOUS
 10
207.7153167724609091
 20
15.5405120849609393
 30
0.0
 11
207.7504730224609091
 21
15.5405120849609393
 31
0.0
  0
LINE
  5
430
100
AcDbEntity
100
AcDbLine
  8
FOREGROUND
 62
256
370
9
  6
CONTINUOUS
 10
208.2779388427734091
 20
15.5405120849609393
 30
0.0
 11
208.3834228515625
 21
15.5405120849609393
 31
0.0
  0
LINE
  5
431
100
AcDbEntity
100
AcDbLine
  8
FOREGROUND
 62
256
370
9
  6
CONTINUOUS
 10
208.6998901367188068
 20
15.5405120849609393
 30
0.0
 11
208.7702178955078125
 21
15.5405120849609393
 31
0.0
  0
LINE
  5
432
100
AcDbEntity
100
AcDbLine
  8
FOREGROUND
 62
256
370
9
  6
CONTINUOUS
 10
209.0163421630859091
 20
15.5405120849609393
 30
0.0
 11
209.0515441894530966
 21
15.5405120849609393
 31
0.0
  0
LINE
  5
433
100
AcDbEntity
100
AcDbLine
  8
FOREGROUND
 62
256
370
9
  6
CONTINUOUS
 10
209.2273559570311932
 20
15.5405120849609393
 30
0.0
 11
209.3680114746094034
 21
15.5405120849609393
 31
0.0
  0
LINE
  5
434
100
AcDbEntity
100
AcDbLine
  8
FOREGROUND
 62
256
370
9
  6
CONTINUOUS
 10
209.5438232421875
 20
15.5405120849609393
 30
0.0
 11
209.6141815185546875
 21
15.5405120849609393
 31
0.0
  0
LINE
  5
435
100
AcDbEntity
100
AcDbLine
  8
FOREGROUND
 62
256
370
9
  6
CONTINUOUS
 10
209.9306335449219034
 20
15.5405120849609393
 30
0.0
 11
210.0009613037109091
 21
15.5405120849609393
 31
0.0
  0
LINE
  5
436
100
AcDbEntity
100
AcDbLine
  8
FOREGROUND
 62
256
370
9
  6
CONTINUOUS
 10
210.2822723388671875
 20
15.5405120849609393
 30
0.0
 11
210.3877716064453125
 21
15.5405120849609393
 31
0.0
  0
LINE
  5
437
100
AcDbEntity
100
AcDbLine
  8
FOREGROUND
 62
256
370
9
  6
CONTINUOUS
 10
210.5987396240234091
 20
15.5405120849609393
 30
0.0
 11
210.6690521240234091
 21
15.5405120849609393
 31
0.0
  0
LINE
  5
438
100
AcDbEntity
100
AcDbLine
  8
FOREGROUND
 62
256
370
9
  6
CONTINUOUS
 10
211.0207061767578125
 20
15.5405120849609393
 30
0.0
 11
211.0910186767578125
 21
15.5405120849609393
 31
0.0
  0
LINE
  5
439
100
AcDbEntity
100
AcDbLine
  8
FOREGROUND
 62
256
370
9
  6
CONTINUOUS
 10
195.1618499755859091
 20
15.5753479003906197
 30
0.0
 11
195.232177734375
 21
15.5753479003906197
 31
0.0
  0
LINE
  5
43A
100
AcDbEntity
100
AcDbLine
  8
FOREGROUND
 62
256
370
9
  6
CONTINUOUS
 10
195.5486602783203125
 20
15.5753479003906197
 30
0.0
 11
195.5838165283203125
 21
15.5753479003906197
 31
0.0
  0
LINE
  5
43B
100
AcDbEntity
100
AcDbLine
  8
FOREGROUND
 62
256
370
9
  6
CONTINUOUS
 10
195.7948150634765909
 20
15.5753479003906197
 30
0.0
 11
195.8651275634765909
 21
15.5753479003906197
 31
0.0
  0
LINE
  5
43C
100
AcDbEntity
100
AcDbLine
  8
FOREGROUND
 62
256
370
9
  6
CONTINUOUS
 10
196.1815948486328125
 20
15.5753479003906197
 30
0.0
 11
196.2167510986328125
 21
15.5753479003906197
 31
0.0
  0
LINE
  5
43D
100
AcDbEntity
100
AcDbLine
  8
FOREGROUND
 62
256
370
9
  6
CONTINUOUS
 10
196.3925628662109091
 20
15.5753479003906197
 30
0.0
 11
196.4629211425780966
 21
15.5753479003906197
 31
0.0
  0
LINE
  5
43E
100
AcDbEntity
100
AcDbLine
  8
FOREGROUND
 62
256
370
9
  6
CONTINUOUS
 10
196.7793884277344034
 20
15.5753479003906197
 30
0.0
 11
196.8145294189453125
 21
15.5753479003906197
 31
0.0
  0
LINE
  5
43F
100
AcDbEntity
100
AcDbLine
  8
FOREGROUND
 62
256
370
9
  6
CONTINUOUS
 10
197.0255432128905966
 20
15.5753479003906197
 30
0.0
 11
197.0958557128905966
 21
15.5753479003906197
 31
0.0
  0
LINE
  5
440
100
AcDbEntity
100
AcDbLine
  8
FOREGROUND
 62
256
370
9
  6
CONTINUOUS
 10
197.3068542480469034
 20
15.5753479003906197
 30
0.0
 11
197.4123382568359091
 21
15.5753479003906197
 31
0.0
  0
LINE
  5
441
100
AcDbEntity
100
AcDbLine
  8
FOREGROUND
 62
256
370
9
  6
CONTINUOUS
 10
197.8694610595703125
 20
15.5753479003906197
 30
0.0
 11
197.9398040771484091
 21
15.5753479003906197
 31
0.0
  0
LINE
  5
442
100
AcDbEntity
100
AcDbLine
  8
FOREGROUND
 62
256
370
9
  6
CONTINUOUS
 10
198.4320831298828125
 20
15.5753479003906197
 30
0.0
 11
198.5023956298828125
 21
15.5753479003906197
 31
0.0
  0
LINE
  5
443
100
AcDbEntity
100
AcDbLine
  8
FOREGROUND
 62
256
370
9
  6
CONTINUOUS
 10
198.6782379150390909
 20
15.5753479003906197
 30
0.0
 11
198.7837066650390909
 21
15.5753479003906197
 31
0.0
  0
LINE
  5
444
100
AcDbEntity
100
AcDbLine
  8
FOREGROUND
 62
256
370
9
  6
CONTINUOUS
 10
198.9947204589844034
 20
15.5753479003906197
 30
0.0
 11
199.1001892089844034
 21
15.5753479003906197
 31
0.0
  0
LINE
  5
445
100
AcDbEntity
100
AcDbLine
  8
FOREGROUND
 62
256
370
9
  6
CONTINUOUS
 10
199.4870147705078125
 20
15.5753479003906197
 30
0.0
 11
199.5924987792969034
 21
15.5753479003906197
 31
0.0
  0
LINE
  5
446
100
AcDbEntity
100
AcDbLine
  8
FOREGROUND
 62
256
370
9
  6
CONTINUOUS
 10
199.8386383056640909
 20
15.5753479003906197
 30
0.0
 11
199.873779296875
 21
15.5753479003906197
 31
0.0
  0
LINE
  5
447
100
AcDbEntity
100
AcDbLine
  8
FOREGROUND
 62
256
370
9
  6
CONTINUOUS
 10
200.0144500732421875
 20
15.5753479003906197
 30
0.0
 11
200.1902923583984091
 21
15.5753479003906197
 31
0.0
  0
LINE
  5
448
100
AcDbEntity
100
AcDbLine
  8
FOREGROUND
 62
256
370
9
  6
CONTINUOUS
 10
200.3661041259765909
 20
15.5753479003906197
 30
0.0
 11
200.4364166259765909
 21
15.5753479003906197
 31
0.0
  0
LINE
  5
449
100
AcDbEntity
100
AcDbLine
  8
FOREGROUND
 62
256
370
9
  6
CONTINUOUS
 10
200.6825714111328125
 20
15.5753479003906197
 30
0.0
 11
200.7177276611328125
 21
15.5753479003906197
 31
0.0
  0
LINE
  5
44A
100
AcDbEntity
100
AcDbLine
  8
FOREGROUND
 62
256
370
9
  6
CONTINUOUS
 10
201.0341949462890909
 20
15.5753479003906197
 30
0.0
 11
201.1397094726561932
 21
15.5753479003906197
 31
0.0
  0
LINE
  5
44B
100
AcDbEntity
100
AcDbLine
  8
FOREGROUND
 62
256
370
9
  6
CONTINUOUS
 10
201.3506622314453125
 20
15.5753479003906197
 30
0.0
 11
201.3858184814453125
 21
15.5753479003906197
 31
0.0
  0
LINE
  5
44C
100
AcDbEntity
100
AcDbLine
  8
FOREGROUND
 62
256
370
9
  6
CONTINUOUS
 10
201.6671447753905966
 20
15.5753479003906197
 30
0.0
 11
201.7022857666015909
 21
15.5753479003906197
 31
0.0
  0
LINE
  5
44D
100
AcDbEntity
100
AcDbLine
  8
FOREGROUND
 62
256
370
9
  6
CONTINUOUS
 10
201.8781280517578125
 20
15.5753479003906197
 30
0.0
 11
201.9836273193359091
 21
15.5753479003906197
 31
0.0
  0
LINE
  5
44E
100
AcDbEntity
100
AcDbLine
  8
FOREGROUND
 62
256
370
9
  6
CONTINUOUS
 10
202.4055938720703125
 20
15.5753479003906197
 30
0.0
 11
202.4407348632811932
 21
15.5753479003906197
 31
0.0
  0
LINE
  5
44F
100
AcDbEntity
100
AcDbLine
  8
FOREGROUND
 62
256
370
9
  6
CONTINUOUS
 10
202.6517486572265909
 20
15.5753479003906197
 30
0.0
 11
202.7220611572265909
 21
15.5753479003906197
 31
0.0
  0
LINE
  5
450
100
AcDbEntity
100
AcDbLine
  8
FOREGROUND
 62
256
370
9
  6
CONTINUOUS
 10
203.0736999511719034
 20
15.5753479003906197
 30
0.0
 11
203.1440277099609091
 21
15.5753479003906197
 31
0.0
  0
LINE
  5
451
100
AcDbEntity
100
AcDbLine
  8
FOREGROUND
 62
256
370
9
  6
CONTINUOUS
 10
203.4604797363280966
 20
15.5753479003906197
 30
0.0
 11
203.5308074951171875
 21
15.5753479003906197
 31
0.0
  0
LINE
  5
452
100
AcDbEntity
100
AcDbLine
  8
FOREGROUND
 62
256
370
9
  6
CONTINUOUS
 10
203.8121337890625
 20
15.5753479003906197
 30
0.0
 11
203.8473052978515909
 21
15.5753479003906197
 31
0.0
  0
LINE
  5
453
100
AcDbEntity
100
AcDbLine
  8
FOREGROUND
 62
256
370
9
  6
CONTINUOUS
 10
204.1285858154296875
 20
15.5753479003906197
 30
0.0
 11
204.304443359375
 21
15.5753479003906197
 31
0.0
  0
LINE
  5
454
100
AcDbEntity
100
AcDbLine
  8
FOREGROUND
 62
256
370
9
  6
CONTINUOUS
 10
204.5857238769530966
 20
15.5753479003906197
 30
0.0
 11
204.6560821533203125
 21
15.5753479003906197
 31
0.0
  0
LINE
  5
455
100
AcDbEntity
100
AcDbLine
  8
FOREGROUND
 62
256
370
9
  6
CONTINUOUS
 10
204.9725494384765909
 20
15.5753479003906197
 30
0.0
 11
205.0077056884765909
 21
15.5753479003906197
 31
0.0
  0
LINE
  5
456
100
AcDbEntity
100
AcDbLine
  8
FOREGROUND
 62
256
370
9
  6
CONTINUOUS
 10
205.1835174560546875
 20
15.5753479003906197
 30
0.0
 11
205.2187042236328125
 21
15.5753479003906197
 31
0.0
  0
LINE
  5
457
100
AcDbEntity
100
AcDbLine
  8
FOREGROUND
 62
256
370
9
  6
CONTINUOUS
 10
205.4999847412109091
 20
15.5753479003906197
 30
0.0
 11
205.6758270263671875
 21
15.5753479003906197
 31
0.0
  0
LINE
  5
458
100
AcDbEntity
100
AcDbLine
  8
FOREGROUND
 62
256
370
9
  6
CONTINUOUS
 10
205.9571075439453125
 20
15.5753479003906197
 30
0.0
 11
206.0274505615234091
 21
15.5753479003906197
 31
0.0
  0
LINE
  5
459
100
AcDbEntity
100
AcDbLine
  8
FOREGROUND
 62
256
370
9
  6
CONTINUOUS
 10
206.3087768554688068
 20
15.5753479003906197
 30
0.0
 11
206.4142608642578125
 21
15.5753479003906197
 31
0.0
  0
LINE
  5
45A
100
AcDbEntity
100
AcDbLine
  8
FOREGROUND
 62
256
370
9
  6
CONTINUOUS
 10
206.5549011230469034
 20
15.5753479003906197
 30
0.0
 11
206.590087890625
 21
15.5753479003906197
 31
0.0
  0
LINE
  5
45B
100
AcDbEntity
100
AcDbLine
  8
FOREGROUND
 62
256
370
9
  6
CONTINUOUS
 10
206.9065551757811932
 20
15.5753479003906197
 30
0.0
 11
207.0120239257811932
 21
15.5753479003906197
 31
0.0
  0
LINE
  5
45C
100
AcDbEntity
100
AcDbLine
  8
FOREGROUND
 62
256
370
9
  6
CONTINUOUS
 10
207.3285217285155966
 20
15.5753479003906197
 30
0.0
 11
207.3988342285155966
 21
15.5753479003906197
 31
0.0
  0
LINE
  5
45D
100
AcDbEntity
100
AcDbLine
  8
FOREGROUND
 62
256
370
9
  6
CONTINUOUS
 10
207.7153167724609091
 20
15.5753479003906197
 30
0.0
 11
207.7504730224609091
 21
15.5753479003906197
 31
0.0
  0
LINE
  5
45E
100
AcDbEntity
100
AcDbLine
  8
FOREGROUND
 62
256
370
9
  6
CONTINUOUS
 10
208.2427673339844034
 20
15.5753479003906197
 30
0.0
 11
208.3834228515625
 21
15.5753479003906197
 31
0.0
  0
LINE
  5
45F
100
AcDbEntity
100
AcDbLine
  8
FOREGROUND
 62
256
370
9
  6
CONTINUOUS
 10
208.7350769042969034
 20
15.5753479003906197
 30
0.0
 11
208.8053894042969034
 21
15.5753479003906197
 31
0.0
  0
LINE
  5
460
100
AcDbEntity
100
AcDbLine
  8
FOREGROUND
 62
256
370
9
  6
CONTINUOUS
 10
209.0515441894530966
 20
15.5753479003906197
 30
0.0
 11
209.0867004394530966
 21
15.5753479003906197
 31
0.0
  0
LINE
  5
461
100
AcDbEntity
100
AcDbLine
  8
FOREGROUND
 62
256
370
9
  6
CONTINUOUS
 10
209.2273559570311932
 20
15.5753479003906197
 30
0.0
 11
209.4031677246094034
 21
15.5753479003906197
 31
0.0
  0
LINE
  5
462
100
AcDbEntity
100
AcDbLine
  8
FOREGROUND
 62
256
370
9
  6
CONTINUOUS
 10
209.5789794921875
 20
15.5753479003906197
 30
0.0
 11
209.6493225097655966
 21
15.5753479003906197
 31
0.0
  0
LINE
  5
463
100
AcDbEntity
100
AcDbLine
  8
FOREGROUND
 62
256
370
9
  6
CONTINUOUS
 10
209.9658050537109091
 20
15.5753479003906197
 30
0.0
 11
210.0361175537109091
 21
15.5753479003906197
 31
0.0
  0
LINE
  5
464
100
AcDbEntity
100
AcDbLine
  8
FOREGROUND
 62
256
370
9
  6
CONTINUOUS
 10
210.3174285888671875
 20
15.5753479003906197
 30
0.0
 11
210.4229278564453125
 21
15.5753479003906197
 31
0.0
  0
LINE
  5
465
100
AcDbEntity
100
AcDbLine
  8
FOREGROUND
 62
256
370
9
  6
CONTINUOUS
 10
210.6338958740234091
 20
15.5753479003906197
 30
0.0
 11
210.7042541503905966
 21
15.5753479003906197
 31
0.0
  0
LINE
  5
466
100
AcDbEntity
100
AcDbLine
  8
FOREGROUND
 62
256
370
9
  6
CONTINUOUS
 10
211.0558776855469034
 20
15.5753479003906197
 30
0.0
 11
211.1262054443359091
 21
15.5753479003906197
 31
0.0
  0
LINE
  5
467
100
AcDbEntity
100
AcDbLine
  8
FOREGROUND
 62
256
370
9
  6
CONTINUOUS
 10
195.1618499755859091
 20
15.61016845703125
 30
0.0
 11
195.232177734375
 21
15.61016845703125
 31
0.0
  0
LINE
  5
468
100
AcDbEntity
100
AcDbLine
  8
FOREGROUND
 62
256
370
9
  6
CONTINUOUS
 10
195.3728485107421875
 20
15.61016845703125
 30
0.0
 11
195.4080047607421875
 21
15.61016845703125
 31
0.0
  0
LINE
  5
469
100
AcDbEntity
100
AcDbLine
  8
FOREGROUND
 62
256
370
9
  6
CONTINUOUS
 10
195.7948150634765909
 20
15.61016845703125
 30
0.0
 11
195.8651275634765909
 21
15.61016845703125
 31
0.0
  0
LINE
  5
46A
100
AcDbEntity
100
AcDbLine
  8
FOREGROUND
 62
256
370
9
  6
CONTINUOUS
 10
196.2167510986328125
 20
15.61016845703125
 30
0.0
 11
196.251953125
 21
15.61016845703125
 31
0.0
  0
LINE
  5
46B
100
AcDbEntity
100
AcDbLine
  8
FOREGROUND
 62
256
370
9
  6
CONTINUOUS
 10
196.3925628662109091
 20
15.61016845703125
 30
0.0
 11
196.4629211425780966
 21
15.61016845703125
 31
0.0
  0
LINE
  5
46C
100
AcDbEntity
100
AcDbLine
  8
FOREGROUND
 62
256
370
9
  6
CONTINUOUS
 10
196.6035766601561932
 20
15.61016845703125
 30
0.0
 11
196.6387329101561932
 21
15.61016845703125
 31
0.0
  0
LINE
  5
46D
100
AcDbEntity
100
AcDbLine
  8
FOREGROUND
 62
256
370
9
  6
CONTINUOUS
 10
197.0255432128905966
 20
15.61016845703125
 30
0.0
 11
197.0958557128905966
 21
15.61016845703125
 31
0.0
  0
LINE
  5
46E
100
AcDbEntity
100
AcDbLine
  8
FOREGROUND
 62
256
370
9
  6
CONTINUOUS
 10
197.2716674804688068
 20
15.61016845703125
 30
0.0
 11
197.4123382568359091
 21
15.61016845703125
 31
0.0
  0
LINE
  5
46F
100
AcDbEntity
100
AcDbLine
  8
FOREGROUND
 62
256
370
9
  6
CONTINUOUS
 10
197.8694610595703125
 20
15.61016845703125
 30
0.0
 11
197.9398040771484091
 21
15.61016845703125
 31
0.0
  0
LINE
  5
470
100
AcDbEntity
100
AcDbLine
  8
FOREGROUND
 62
256
370
9
  6
CONTINUOUS
 10
198.4320831298828125
 20
15.61016845703125
 30
0.0
 11
198.5023956298828125
 21
15.61016845703125
 31
0.0
  0
LINE
  5
471
100
AcDbEntity
100
AcDbLine
  8
FOREGROUND
 62
256
370
9
  6
CONTINUOUS
 10
198.6782379150390909
 20
15.61016845703125
 30
0.0
 11
198.7837066650390909
 21
15.61016845703125
 31
0.0
  0
LINE
  5
472
100
AcDbEntity
100
AcDbLine
  8
FOREGROUND
 62
256
370
9
  6
CONTINUOUS
 10
198.9947204589844034
 20
15.61016845703125
 30
0.0
 11
199.0650329589844034
 21
15.61016845703125
 31
0.0
  0
LINE
  5
473
100
AcDbEntity
100
AcDbLine
  8
FOREGROUND
 62
256
370
9
  6
CONTINUOUS
 10
199.5221557617188068
 20
15.61016845703125
 30
0.0
 11
199.6276550292969034
 21
15.61016845703125
 31
0.0
  0
LINE
  5
474
100
AcDbEntity
100
AcDbLine
  8
FOREGROUND
 62
256
370
9
  6
CONTINUOUS
 10
199.8386383056640909
 20
15.61016845703125
 30
0.0
 11
199.873779296875
 21
15.61016845703125
 31
0.0
  0
LINE
  5
475
100
AcDbEntity
100
AcDbLine
  8
FOREGROUND
 62
256
370
9
  6
CONTINUOUS
 10
200.0144500732421875
 20
15.61016845703125
 30
0.0
 11
200.1902923583984091
 21
15.61016845703125
 31
0.0
  0
LINE
  5
476
100
AcDbEntity
100
AcDbLine
  8
FOREGROUND
 62
256
370
9
  6
CONTINUOUS
 10
200.3661041259765909
 20
15.61016845703125
 30
0.0
 11
200.4364166259765909
 21
15.61016845703125
 31
0.0
  0
LINE
  5
477
100
AcDbEntity
100
AcDbLine
  8
FOREGROUND
 62
256
370
9
  6
CONTINUOUS
 10
200.7177276611328125
 20
15.61016845703125
 30
0.0
 11
200.7528839111328125
 21
15.61016845703125
 31
0.0
  0
LINE
  5
478
100
AcDbEntity
100
AcDbLine
  8
FOREGROUND
 62
256
370
9
  6
CONTINUOUS
 10
201.0341949462890909
 20
15.61016845703125
 30
0.0
 11
201.1397094726561932
 21
15.61016845703125
 31
0.0
  0
LINE
  5
479
100
AcDbEntity
100
AcDbLine
  8
FOREGROUND
 62
256
370
9
  6
CONTINUOUS
 10
201.3506622314453125
 20
15.61016845703125
 30
0.0
 11
201.3858184814453125
 21
15.61016845703125
 31
0.0
  0
LINE
  5
47A
100
AcDbEntity
100
AcDbLine
  8
FOREGROUND
 62
256
370
9
  6
CONTINUOUS
 10
201.6671447753905966
 20
15.61016845703125
 30
0.0
 11
201.7374877929688068
 21
15.61016845703125
 31
0.0
  0
LINE
  5
47B
100
AcDbEntity
100
AcDbLine
  8
FOREGROUND
 62
256
370
9
  6
CONTINUOUS
 10
201.8781280517578125
 20
15.61016845703125
 30
0.0
 11
201.9836273193359091
 21
15.61016845703125
 31
0.0
  0
LINE
  5
47C
100
AcDbEntity
100
AcDbLine
  8
FOREGROUND
 62
256
370
9
  6
CONTINUOUS
 10
202.4407348632811932
 20
15.61016845703125
 30
0.0
 11
202.4759368896484091
 21
15.61016845703125
 31
0.0
  0
LINE
  5
47D
100
AcDbEntity
100
AcDbLine
  8
FOREGROUND
 62
256
370
9
  6
CONTINUOUS
 10
202.6517486572265909
 20
15.61016845703125
 30
0.0
 11
202.7220611572265909
 21
15.61016845703125
 31
0.0
  0
LINE
  5
47E
100
AcDbEntity
100
AcDbLine
  8
FOREGROUND
 62
256
370
9
  6
CONTINUOUS
 10
203.0736999511719034
 20
15.61016845703125
 30
0.0
 11
203.1440277099609091
 21
15.61016845703125
 31
0.0
  0
LINE
  5
47F
100
AcDbEntity
100
AcDbLine
  8
FOREGROUND
 62
256
370
9
  6
CONTINUOUS
 10
203.4604797363280966
 20
15.61016845703125
 30
0.0
 11
203.5308074951171875
 21
15.61016845703125
 31
0.0
  0
LINE
  5
480
100
AcDbEntity
100
AcDbLine
  8
FOREGROUND
 62
256
370
9
  6
CONTINUOUS
 10
203.8121337890625
 20
15.61016845703125
 30
0.0
 11
203.8473052978515909
 21
15.61016845703125
 31
0.0
  0
LINE
  5
481
100
AcDbEntity
100
AcDbLine
  8
FOREGROUND
 62
256
370
9
  6
CONTINUOUS
 10
204.1285858154296875
 20
15.61016845703125
 30
0.0
 11
204.304443359375
 21
15.61016845703125
 31
0.0
  0
LINE
  5
482
100
AcDbEntity
100
AcDbLine
  8
FOREGROUND
 62
256
370
9
  6
CONTINUOUS
 10
204.5857238769530966
 20
15.61016845703125
 30
0.0
 11
204.6560821533203125
 21
15.61016845703125
 31
0.0
  0
LINE
  5
483
100
AcDbEntity
100
AcDbLine
  8
FOREGROUND
 62
256
370
9
  6
CONTINUOUS
 10
204.7967376708984091
 20
15.61016845703125
 30
0.0
 11
204.8318939208984091
 21
15.61016845703125
 31
0.0
  0
LINE
  5
484
100
AcDbEntity
100
AcDbLine
  8
FOREGROUND
 62
256
370
9
  6
CONTINUOUS
 10
205.1835174560546875
 20
15.61016845703125
 30
0.0
 11
205.2187042236328125
 21
15.61016845703125
 31
0.0
  0
LINE
  5
485
100
AcDbEntity
100
AcDbLine
  8
FOREGROUND
 62
256
370
9
  6
CONTINUOUS
 10
205.4999847412109091
 20
15.61016845703125
 30
0.0
 11
205.6758270263671875
 21
15.61016845703125
 31
0.0
  0
LINE
  5
486
100
AcDbEntity
100
AcDbLine
  8
FOREGROUND
 62
256
370
9
  6
CONTINUOUS
 10
205.9571075439453125
 20
15.61016845703125
 30
0.0
 11
206.0274505615234091
 21
15.61016845703125
 31
0.0
  0
LINE
  5
487
100
AcDbEntity
100
AcDbLine
  8
FOREGROUND
 62
256
370
9
  6
CONTINUOUS
 10
206.3087768554688068
 20
15.61016845703125
 30
0.0
 11
206.4142608642578125
 21
15.61016845703125
 31
0.0
  0
LINE
  5
488
100
AcDbEntity
100
AcDbLine
  8
FOREGROUND
 62
256
370
9
  6
CONTINUOUS
 10
206.590087890625
 20
15.61016845703125
 30
0.0
 11
206.625244140625
 21
15.61016845703125
 31
0.0
  0
LINE
  5
489
100
AcDbEntity
100
AcDbLine
  8
FOREGROUND
 62
256
370
9
  6
CONTINUOUS
 10
206.9065551757811932
 20
15.61016845703125
 30
0.0
 11
207.0120239257811932
 21
15.61016845703125
 31
0.0
  0
LINE
  5
48A
100
AcDbEntity
100
AcDbLine
  8
FOREGROUND
 62
256
370
9
  6
CONTINUOUS
 10
207.3285217285155966
 20
15.61016845703125
 30
0.0
 11
207.3988342285155966
 21
15.61016845703125
 31
0.0
  0
LINE
  5
48B
100
AcDbEntity
100
AcDbLine
  8
FOREGROUND
 62
256
370
9
  6
CONTINUOUS
 10
207.7504730224609091
 20
15.61016845703125
 30
0.0
 11
207.7856140136719034
 21
15.61016845703125
 31
0.0
  0
LINE
  5
48C
100
AcDbEntity
100
AcDbLine
  8
FOREGROUND
 62
256
370
9
  6
CONTINUOUS
 10
208.2427673339844034
 20
15.61016845703125
 30
0.0
 11
208.3482513427734091
 21
15.61016845703125
 31
0.0
  0
LINE
  5
48D
100
AcDbEntity
100
AcDbLine
  8
FOREGROUND
 62
256
370
9
  6
CONTINUOUS
 10
208.6998901367188068
 20
15.61016845703125
 30
0.0
 11
208.8053894042969034
 21
15.61016845703125
 31
0.0
  0
LINE
  5
48E
100
AcDbEntity
100
AcDbLine
  8
FOREGROUND
 62
256
370
9
  6
CONTINUOUS
 10
209.0515441894530966
 20
15.61016845703125
 30
0.0
 11
209.0867004394530966
 21
15.61016845703125
 31
0.0
  0
LINE
  5
48F
100
AcDbEntity
100
AcDbLine
  8
FOREGROUND
 62
256
370
9
  6
CONTINUOUS
 10
209.2273559570311932
 20
15.61016845703125
 30
0.0
 11
209.4031677246094034
 21
15.61016845703125
 31
0.0
  0
LINE
  5
490
100
AcDbEntity
100
AcDbLine
  8
FOREGROUND
 62
256
370
9
  6
CONTINUOUS
 10
209.5789794921875
 20
15.61016845703125
 30
0.0
 11
209.6493225097655966
 21
15.61016845703125
 31
0.0
  0
LINE
  5
491
100
AcDbEntity
100
AcDbLine
  8
FOREGROUND
 62
256
370
9
  6
CONTINUOUS
 10
209.9658050537109091
 20
15.61016845703125
 30
0.0
 11
210.0361175537109091
 21
15.61016845703125
 31
0.0
  0
LINE
  5
492
100
AcDbEntity
100
AcDbLine
  8
FOREGROUND
 62
256
370
9
  6
CONTINUOUS
 10
210.3174285888671875
 20
15.61016845703125
 30
0.0
 11
210.4229278564453125
 21
15.61016845703125
 31
0.0
  0
LINE
  5
493
100
AcDbEntity
100
AcDbLine
  8
FOREGROUND
 62
256
370
9
  6
CONTINUOUS
 10
210.6338958740234091
 20
15.61016845703125
 30
0.0
 11
210.7042541503905966
 21
15.61016845703125
 31
0.0
  0
LINE
  5
494
100
AcDbEntity
100
AcDbLine
  8
FOREGROUND
 62
256
370
9
  6
CONTINUOUS
 10
211.0558776855469034
 20
15.61016845703125
 30
0.0
 11
211.1262054443359091
 21
15.61016845703125
 31
0.0
  0
LINE
  5
495
100
AcDbEntity
100
AcDbLine
  8
FOREGROUND
 62
256
370
9
  6
CONTINUOUS
 10
195.1618499755859091
 20
15.6450042724609393
 30
0.0
 11
195.232177734375
 21
15.6450042724609393
 31
0.0
  0
LINE
  5
496
100
AcDbEntity
100
AcDbLine
  8
FOREGROUND
 62
256
370
9
  6
CONTINUOUS
 10
195.3728485107421875
 20
15.6450042724609393
 30
0.0
 11
195.4080047607421875
 21
15.6450042724609393
 31
0.0
  0
LINE
  5
497
100
AcDbEntity
100
AcDbLine
  8
FOREGROUND
 62
256
370
9
  6
CONTINUOUS
 10
195.7948150634765909
 20
15.6450042724609393
 30
0.0
 11
195.8651275634765909
 21
15.6450042724609393
 31
0.0
  0
LINE
  5
498
100
AcDbEntity
100
AcDbLine
  8
FOREGROUND
 62
256
370
9
  6
CONTINUOUS
 10
196.3925628662109091
 20
15.6450042724609393
 30
0.0
 11
196.4629211425780966
 21
15.6450042724609393
 31
0.0
  0
LINE
  5
499
100
AcDbEntity
100
AcDbLine
  8
FOREGROUND
 62
256
370
9
  6
CONTINUOUS
 10
196.6035766601561932
 20
15.6450042724609393
 30
0.0
 11
196.6387329101561932
 21
15.6450042724609393
 31
0.0
  0
LINE
  5
49A
100
AcDbEntity
100
AcDbLine
  8
FOREGROUND
 62
256
370
9
  6
CONTINUOUS
 10
197.0255432128905966
 20
15.6450042724609393
 30
0.0
 11
197.0958557128905966
 21
15.6450042724609393
 31
0.0
  0
LINE
  5
49B
100
AcDbEntity
100
AcDbLine
  8
FOREGROUND
 62
256
370
9
  6
CONTINUOUS
 10
197.2365264892578125
 20
15.6450042724609393
 30
0.0
 11
197.3771667480469034
 21
15.6450042724609393
 31
0.0
  0
LINE
  5
49C
100
AcDbEntity
100
AcDbLine
  8
FOREGROUND
 62
256
370
9
  6
CONTINUOUS
 10
197.8694610595703125
 20
15.6450042724609393
 30
0.0
 11
197.9398040771484091
 21
15.6450042724609393
 31
0.0
  0
LINE
  5
49D
100
AcDbEntity
100
AcDbLine
  8
FOREGROUND
 62
256
370
9
  6
CONTINUOUS
 10
198.4320831298828125
 20
15.6450042724609393
 30
0.0
 11
198.5023956298828125
 21
15.6450042724609393
 31
0.0
  0
LINE
  5
49E
100
AcDbEntity
100
AcDbLine
  8
FOREGROUND
 62
256
370
9
  6
CONTINUOUS
 10
198.6430511474609091
 20
15.6450042724609393
 30
0.0
 11
198.7485656738280966
 21
15.6450042724609393
 31
0.0
  0
LINE
  5
49F
100
AcDbEntity
100
AcDbLine
  8
FOREGROUND
 62
256
370
9
  6
CONTINUOUS
 10
198.9947204589844034
 20
15.6450042724609393
 30
0.0
 11
199.0650329589844034
 21
15.6450042724609393
 31
0.0
  0
LINE
  5
4A0
100
AcDbEntity
100
AcDbLine
  8
FOREGROUND
 62
256
370
9
  6
CONTINUOUS
 10
199.5573120117188068
 20
15.6450042724609393
 30
0.0
 11
199.6628265380859091
 21
15.6450042724609393
 31
0.0
  0
LINE
  5
4A1
100
AcDbEntity
100
AcDbLine
  8
FOREGROUND
 62
256
370
9
  6
CONTINUOUS
 10
199.8386383056640909
 20
15.6450042724609393
 30
0.0
 11
199.873779296875
 21
15.6450042724609393
 31
0.0
  0
LINE
  5
4A2
100
AcDbEntity
100
AcDbLine
  8
FOREGROUND
 62
256
370
9
  6
CONTINUOUS
 10
200.0144500732421875
 20
15.6450042724609393
 30
0.0
 11
200.1199340820311932
 21
15.6450042724609393
 31
0.0
  0
LINE
  5
4A3
100
AcDbEntity
100
AcDbLine
  8
FOREGROUND
 62
256
370
9
  6
CONTINUOUS
 10
200.1902923583984091
 20
15.6450042724609393
 30
0.0
 11
200.2254486083984091
 21
15.6450042724609393
 31
0.0
  0
LINE
  5
4A4
100
AcDbEntity
100
AcDbLine
  8
FOREGROUND
 62
256
370
9
  6
CONTINUOUS
 10
200.3661041259765909
 20
15.6450042724609393
 30
0.0
 11
200.4364166259765909
 21
15.6450042724609393
 31
0.0
  0
LINE
  5
4A5
100
AcDbEntity
100
AcDbLine
  8
FOREGROUND
 62
256
370
9
  6
CONTINUOUS
 10
200.7528839111328125
 20
15.6450042724609393
 30
0.0
 11
200.7880401611328125
 21
15.6450042724609393
 31
0.0
  0
LINE
  5
4A6
100
AcDbEntity
100
AcDbLine
  8
FOREGROUND
 62
256
370
9
  6
CONTINUOUS
 10
201.0341949462890909
 20
15.6450042724609393
 30
0.0
 11
201.1397094726561932
 21
15.6450042724609393
 31
0.0
  0
LINE
  5
4A7
100
AcDbEntity
100
AcDbLine
  8
FOREGROUND
 62
256
370
9
  6
CONTINUOUS
 10
201.6671447753905966
 20
15.6450042724609393
 30
0.0
 11
201.7374877929688068
 21
15.6450042724609393
 31
0.0
  0
LINE
  5
4A8
100
AcDbEntity
100
AcDbLine
  8
FOREGROUND
 62
256
370
9
  6
CONTINUOUS
 10
201.8781280517578125
 20
15.6450042724609393
 30
0.0
 11
201.9836273193359091
 21
15.6450042724609393
 31
0.0
  0
LINE
  5
4A9
100
AcDbEntity
100
AcDbLine
  8
FOREGROUND
 62
256
370
9
  6
CONTINUOUS
 10
202.6517486572265909
 20
15.6450042724609393
 30
0.0
 11
202.7220611572265909
 21
15.6450042724609393
 31
0.0
  0
LINE
  5
4AA
100
AcDbEntity
100
AcDbLine
  8
FOREGROUND
 62
256
370
9
  6
CONTINUOUS
 10
203.0736999511719034
 20
15.6450042724609393
 30
0.0
 11
203.1440277099609091
 21
15.6450042724609393
 31
0.0
  0
LINE
  5
4AB
100
AcDbEntity
100
AcDbLine
  8
FOREGROUND
 62
256
370
9
  6
CONTINUOUS
 10
203.4604797363280966
 20
15.6450042724609393
 30
0.0
 11
203.5308074951171875
 21
15.6450042724609393
 31
0.0
  0
LINE
  5
4AC
100
AcDbEntity
100
AcDbLine
  8
FOREGROUND
 62
256
370
9
  6
CONTINUOUS
 10
203.8121337890625
 20
15.6450042724609393
 30
0.0
 11
203.8473052978515909
 21
15.6450042724609393
 31
0.0
  0
LINE
  5
4AD
100
AcDbEntity
100
AcDbLine
  8
FOREGROUND
 62
256
370
9
  6
CONTINUOUS
 10
204.0934448242188068
 20
15.6450042724609393
 30
0.0
 11
204.304443359375
 21
15.6450042724609393
 31
0.0
  0
LINE
  5
4AE
100
AcDbEntity
100
AcDbLine
  8
FOREGROUND
 62
256
370
9
  6
CONTINUOUS
 10
204.5857238769530966
 20
15.6450042724609393
 30
0.0
 11
204.6560821533203125
 21
15.6450042724609393
 31
0.0
  0
LINE
  5
4AF
100
AcDbEntity
100
AcDbLine
  8
FOREGROUND
 62
256
370
9
  6
CONTINUOUS
 10
204.7967376708984091
 20
15.6450042724609393
 30
0.0
 11
204.8318939208984091
 21
15.6450042724609393
 31
0.0
  0
LINE
  5
4B0
100
AcDbEntity
100
AcDbLine
  8
FOREGROUND
 62
256
370
9
  6
CONTINUOUS
 10
205.1835174560546875
 20
15.6450042724609393
 30
0.0
 11
205.2187042236328125
 21
15.6450042724609393
 31
0.0
  0
LINE
  5
4B1
100
AcDbEntity
100
AcDbLine
  8
FOREGROUND
 62
256
370
9
  6
CONTINUOUS
 10
205.4648284912109091
 20
15.6450042724609393
 30
0.0
 11
205.6758270263671875
 21
15.6450042724609393
 31
0.0
  0
LINE
  5
4B2
100
AcDbEntity
100
AcDbLine
  8
FOREGROUND
 62
256
370
9
  6
CONTINUOUS
 10
205.9571075439453125
 20
15.6450042724609393
 30
0.0
 11
206.0274505615234091
 21
15.6450042724609393
 31
0.0
  0
LINE
  5
4B3
100
AcDbEntity
100
AcDbLine
  8
FOREGROUND
 62
256
370
9
  6
CONTINUOUS
 10
206.3087768554688068
 20
15.6450042724609393
 30
0.0
 11
206.4142608642578125
 21
15.6450042724609393
 31
0.0
  0
LINE
  5
4B4
100
AcDbEntity
100
AcDbLine
  8
FOREGROUND
 62
256
370
9
  6
CONTINUOUS
 10
206.625244140625
 20
15.6450042724609393
 30
0.0
 11
206.660400390625
 21
15.6450042724609393
 31
0.0
  0
LINE
  5
4B5
100
AcDbEntity
100
AcDbLine
  8
FOREGROUND
 62
256
370
9
  6
CONTINUOUS
 10
206.9065551757811932
 20
15.6450042724609393
 30
0.0
 11
207.0120239257811932
 21
15.6450042724609393
 31
0.0
  0
LINE
  5
4B6
100
AcDbEntity
100
AcDbLine
  8
FOREGROUND
 62
256
370
9
  6
CONTINUOUS
 10
207.3285217285155966
 20
15.6450042724609393
 30
0.0
 11
207.3988342285155966
 21
15.6450042724609393
 31
0.0
  0
LINE
  5
4B7
100
AcDbEntity
100
AcDbLine
  8
FOREGROUND
 62
256
370
9
  6
CONTINUOUS
 10
207.7504730224609091
 20
15.6450042724609393
 30
0.0
 11
207.7856140136719034
 21
15.6450042724609393
 31
0.0
  0
LINE
  5
4B8
100
AcDbEntity
100
AcDbLine
  8
FOREGROUND
 62
256
370
9
  6
CONTINUOUS
 10
208.2427673339844034
 20
15.6450042724609393
 30
0.0
 11
208.3482513427734091
 21
15.6450042724609393
 31
0.0
  0
LINE
  5
4B9
100
AcDbEntity
100
AcDbLine
  8
FOREGROUND
 62
256
370
9
  6
CONTINUOUS
 10
208.6295776367188068
 20
15.6450042724609393
 30
0.0
 11
208.910888671875
 21
15.6450042724609393
 31
0.0
  0
LINE
  5
4BA
100
AcDbEntity
100
AcDbLine
  8
FOREGROUND
 62
256
370
9
  6
CONTINUOUS
 10
209.0515441894530966
 20
15.6450042724609393
 30
0.0
 11
209.0867004394530966
 21
15.6450042724609393
 31
0.0
  0
LINE
  5
4BB
100
AcDbEntity
100
AcDbLine
  8
FOREGROUND
 62
256
370
9
  6
CONTINUOUS
 10
209.2273559570311932
 20
15.6450042724609393
 30
0.0
 11
209.3328399658203125
 21
15.6450042724609393
 31
0.0
  0
LINE
  5
4BC
100
AcDbEntity
100
AcDbLine
  8
FOREGROUND
 62
256
370
9
  6
CONTINUOUS
 10
209.4031677246094034
 20
15.6450042724609393
 30
0.0
 11
209.4383239746094034
 21
15.6450042724609393
 31
0.0
  0
LINE
  5
4BD
100
AcDbEntity
100
AcDbLine
  8
FOREGROUND
 62
256
370
9
  6
CONTINUOUS
 10
209.5789794921875
 20
15.6450042724609393
 30
0.0
 11
209.6493225097655966
 21
15.6450042724609393
 31
0.0
  0
LINE
  5
4BE
100
AcDbEntity
100
AcDbLine
  8
FOREGROUND
 62
256
370
9
  6
CONTINUOUS
 10
209.9658050537109091
 20
15.6450042724609393
 30
0.0
 11
210.0361175537109091
 21
15.6450042724609393
 31
0.0
  0
LINE
  5
4BF
100
AcDbEntity
100
AcDbLine
  8
FOREGROUND
 62
256
370
9
  6
CONTINUOUS
 10
210.3174285888671875
 20
15.6450042724609393
 30
0.0
 11
210.4229278564453125
 21
15.6450042724609393
 31
0.0
  0
LINE
  5
4C0
100
AcDbEntity
100
AcDbLine
  8
FOREGROUND
 62
256
370
9
  6
CONTINUOUS
 10
210.6338958740234091
 20
15.6450042724609393
 30
0.0
 11
210.7042541503905966
 21
15.6450042724609393
 31
0.0
  0
LINE
  5
4C1
100
AcDbEntity
100
AcDbLine
  8
FOREGROUND
 62
256
370
9
  6
CONTINUOUS
 10
211.0558776855469034
 20
15.6450042724609393
 30
0.0
 11
211.1262054443359091
 21
15.6450042724609393
 31
0.0
  0
LINE
  5
4C2
100
AcDbEntity
100
AcDbLine
  8
FOREGROUND
 62
256
370
9
  6
CONTINUOUS
 10
195.1970367431640909
 20
15.6798477172851598
 30
0.0
 11
195.2673492431640909
 21
15.6798477172851598
 31
0.0
  0
LINE
  5
4C3
100
AcDbEntity
100
AcDbLine
  8
FOREGROUND
 62
256
370
9
  6
CONTINUOUS
 10
195.3728485107421875
 20
15.6798477172851598
 30
0.0
 11
195.4431610107421875
 21
15.6798477172851598
 31
0.0
  0
LINE
  5
4C4
100
AcDbEntity
100
AcDbLine
  8
FOREGROUND
 62
256
370
9
  6
CONTINUOUS
 10
195.8299713134765909
 20
15.6798477172851598
 30
0.0
 11
195.9002838134765909
 21
15.6798477172851598
 31
0.0
  0
LINE
  5
4C5
100
AcDbEntity
100
AcDbLine
  8
FOREGROUND
 62
256
370
9
  6
CONTINUOUS
 10
196.4277648925780966
 20
15.6798477172851598
 30
0.0
 11
196.4980773925780966
 21
15.6798477172851598
 31
0.0
  0
LINE
  5
4C6
100
AcDbEntity
100
AcDbLine
  8
FOREGROUND
 62
256
370
9
  6
CONTINUOUS
 10
196.6035766601561932
 20
15.6798477172851598
 30
0.0
 11
196.6738891601561932
 21
15.6798477172851598
 31
0.0
  0
LINE
  5
4C7
100
AcDbEntity
100
AcDbLine
  8
FOREGROUND
 62
256
370
9
  6
CONTINUOUS
 10
197.0606994628905966
 20
15.6798477172851598
 30
0.0
 11
197.1310119628905966
 21
15.6798477172851598
 31
0.0
  0
LINE
  5
4C8
100
AcDbEntity
100
AcDbLine
  8
FOREGROUND
 62
256
370
9
  6
CONTINUOUS
 10
197.2365264892578125
 20
15.6798477172851598
 30
0.0
 11
197.3420257568359091
 21
15.6798477172851598
 31
0.0
  0
LINE
  5
4C9
100
AcDbEntity
100
AcDbLine
  8
FOREGROUND
 62
256
370
9
  6
CONTINUOUS
 10
197.9046173095703125
 20
15.6798477172851598
 30
0.0
 11
197.9749450683594034
 21
15.6798477172851598
 31
0.0
  0
LINE
  5
4CA
100
AcDbEntity
100
AcDbLine
  8
FOREGROUND
 62
256
370
9
  6
CONTINUOUS
 10
198.4672393798828125
 20
15.6798477172851598
 30
0.0
 11
198.5375823974609091
 21
15.6798477172851598
 31
0.0
  0
LINE
  5
4CB
100
AcDbEntity
100
AcDbLine
  8
FOREGROUND
 62
256
370
9
  6
CONTINUOUS
 10
198.6430511474609091
 20
15.6798477172851598
 30
0.0
 11
198.7485656738280966
 21
15.6798477172851598
 31
0.0
  0
LINE
  5
4CC
100
AcDbEntity
100
AcDbLine
  8
FOREGROUND
 62
256
370
9
  6
CONTINUOUS
 10
198.9947204589844034
 20
15.6798477172851598
 30
0.0
 11
199.1001892089844034
 21
15.6798477172851598
 31
0.0
  0
LINE
  5
4CD
100
AcDbEntity
100
AcDbLine
  8
FOREGROUND
 62
256
370
9
  6
CONTINUOUS
 10
199.5573120117188068
 20
15.6798477172851598
 30
0.0
 11
199.6628265380859091
 21
15.6798477172851598
 31
0.0
  0
LINE
  5
4CE
100
AcDbEntity
100
AcDbLine
  8
FOREGROUND
 62
256
370
9
  6
CONTINUOUS
 10
199.873779296875
 20
15.6798477172851598
 30
0.0
 11
199.9089813232421875
 21
15.6798477172851598
 31
0.0
  0
LINE
  5
4CF
100
AcDbEntity
100
AcDbLine
  8
FOREGROUND
 62
256
370
9
  6
CONTINUOUS
 10
200.0144500732421875
 20
15.6798477172851598
 30
0.0
 11
200.1199340820311932
 21
15.6798477172851598
 31
0.0
  0
LINE
  5
4D0
100
AcDbEntity
100
AcDbLine
  8
FOREGROUND
 62
256
370
9
  6
CONTINUOUS
 10
200.1902923583984091
 20
15.6798477172851598
 30
0.0
 11
200.2606048583984091
 21
15.6798477172851598
 31
0.0
  0
LINE
  5
4D1
100
AcDbEntity
100
AcDbLine
  8
FOREGROUND
 62
256
370
9
  6
CONTINUOUS
 10
200.4012603759765909
 20
15.6798477172851598
 30
0.0
 11
200.4715576171875
 21
15.6798477172851598
 31
0.0
  0
LINE
  5
4D2
100
AcDbEntity
100
AcDbLine
  8
FOREGROUND
 62
256
370
9
  6
CONTINUOUS
 10
200.7880401611328125
 20
15.6798477172851598
 30
0.0
 11
201.1045227050780966
 21
15.6798477172851598
 31
0.0
  0
LINE
  5
4D3
100
AcDbEntity
100
AcDbLine
  8
FOREGROUND
 62
256
370
9
  6
CONTINUOUS
 10
201.6319732666015909
 20
15.6798477172851598
 30
0.0
 11
201.7374877929688068
 21
15.6798477172851598
 31
0.0
  0
LINE
  5
4D4
100
AcDbEntity
100
AcDbLine
  8
FOREGROUND
 62
256
370
9
  6
CONTINUOUS
 10
201.9132995605469034
 20
15.6798477172851598
 30
0.0
 11
202.018798828125
 21
15.6798477172851598
 31
0.0
  0
LINE
  5
4D5
100
AcDbEntity
100
AcDbLine
  8
FOREGROUND
 62
256
370
9
  6
CONTINUOUS
 10
202.6868896484375
 20
15.6798477172851598
 30
0.0
 11
202.7572174072265909
 21
15.6798477172851598
 31
0.0
  0
LINE
  5
4D6
100
AcDbEntity
100
AcDbLine
  8
FOREGROUND
 62
256
370
9
  6
CONTINUOUS
 10
203.1088714599609091
 20
15.6798477172851598
 30
0.0
 11
203.1791839599609091
 21
15.6798477172851598
 31
0.0
  0
LINE
  5
4D7
100
AcDbEntity
100
AcDbLine
  8
FOREGROUND
 62
256
370
9
  6
CONTINUOUS
 10
203.4956512451171875
 20
15.6798477172851598
 30
0.0
 11
203.5660095214844034
 21
15.6798477172851598
 31
0.0
  0
LINE
  5
4D8
100
AcDbEntity
100
AcDbLine
  8
FOREGROUND
 62
256
370
9
  6
CONTINUOUS
 10
203.8473052978515909
 20
15.6798477172851598
 30
0.0
 11
203.8824768066405966
 21
15.6798477172851598
 31
0.0
  0
LINE
  5
4D9
100
AcDbEntity
100
AcDbLine
  8
FOREGROUND
 62
256
370
9
  6
CONTINUOUS
 10
204.0934448242188068
 20
15.6798477172851598
 30
0.0
 11
204.1989288330078125
 21
15.6798477172851598
 31
0.0
  0
LINE
  5
4DA
100
AcDbEntity
100
AcDbLine
  8
FOREGROUND
 62
256
370
9
  6
CONTINUOUS
 10
204.304443359375
 20
15.6798477172851598
 30
0.0
 11
204.339599609375
 21
15.6798477172851598
 31
0.0
  0
LINE
  5
4DB
100
AcDbEntity
100
AcDbLine
  8
FOREGROUND
 62
256
370
9
  6
CONTINUOUS
 10
204.6209106445311932
 20
15.6798477172851598
 30
0.0
 11
204.6912231445311932
 21
15.6798477172851598
 31
0.0
  0
LINE
  5
4DC
100
AcDbEntity
100
AcDbLine
  8
FOREGROUND
 62
256
370
9
  6
CONTINUOUS
 10
204.7967376708984091
 20
15.6798477172851598
 30
0.0
 11
204.8670349121094034
 21
15.6798477172851598
 31
0.0
  0
LINE
  5
4DD
100
AcDbEntity
100
AcDbLine
  8
FOREGROUND
 62
256
370
9
  6
CONTINUOUS
 10
205.2187042236328125
 20
15.6798477172851598
 30
0.0
 11
205.2538604736328125
 21
15.6798477172851598
 31
0.0
  0
LINE
  5
4DE
100
AcDbEntity
100
AcDbLine
  8
FOREGROUND
 62
256
370
9
  6
CONTINUOUS
 10
205.4648284912109091
 20
15.6798477172851598
 30
0.0
 11
205.5703277587890909
 21
15.6798477172851598
 31
0.0
  0
LINE
  5
4DF
100
AcDbEntity
100
AcDbLine
  8
FOREGROUND
 62
256
370
9
  6
CONTINUOUS
 10
205.6758270263671875
 20
15.6798477172851598
 30
0.0
 11
205.7109985351561932
 21
15.6798477172851598
 31
0.0
  0
LINE
  5
4E0
100
AcDbEntity
100
AcDbLine
  8
FOREGROUND
 62
256
370
9
  6
CONTINUOUS
 10
205.9922943115234091
 20
15.6798477172851598
 30
0.0
 11
206.0626220703125
 21
15.6798477172851598
 31
0.0
  0
LINE
  5
4E1
100
AcDbEntity
100
AcDbLine
  8
FOREGROUND
 62
256
370
9
  6
CONTINUOUS
 10
206.3087768554688068
 20
15.6798477172851598
 30
0.0
 11
206.4142608642578125
 21
15.6798477172851598
 31
0.0
  0
LINE
  5
4E2
100
AcDbEntity
100
AcDbLine
  8
FOREGROUND
 62
256
370
9
  6
CONTINUOUS
 10
206.660400390625
 20
15.6798477172851598
 30
0.0
 11
206.9768676757811932
 21
15.6798477172851598
 31
0.0
  0
LINE
  5
4E3
100
AcDbEntity
100
AcDbLine
  8
FOREGROUND
 62
256
370
9
  6
CONTINUOUS
 10
207.3636779785155966
 20
15.6798477172851598
 30
0.0
 11
207.4339904785155966
 21
15.6798477172851598
 31
0.0
  0
LINE
  5
4E4
100
AcDbEntity
100
AcDbLine
  8
FOREGROUND
 62
256
370
9
  6
CONTINUOUS
 10
207.7856140136719034
 20
15.6798477172851598
 30
0.0
 11
207.8208160400390909
 21
15.6798477172851598
 31
0.0
  0
LINE
  5
4E5
100
AcDbEntity
100
AcDbLine
  8
FOREGROUND
 62
256
370
9
  6
CONTINUOUS
 10
208.2779388427734091
 20
15.6798477172851598
 30
0.0
 11
208.3834228515625
 21
15.6798477172851598
 31
0.0
  0
LINE
  5
4E6
100
AcDbEntity
100
AcDbLine
  8
FOREGROUND
 62
256
370
9
  6
CONTINUOUS
 10
209.0867004394530966
 20
15.6798477172851598
 30
0.0
 11
209.1218566894530966
 21
15.6798477172851598
 31
0.0
  0
LINE
  5
4E7
100
AcDbEntity
100
AcDbLine
  8
FOREGROUND
 62
256
370
9
  6
CONTINUOUS
 10
209.2273559570311932
 20
15.6798477172851598
 30
0.0
 11
209.3328399658203125
 21
15.6798477172851598
 31
0.0
  0
LINE
  5
4E8
100
AcDbEntity
100
AcDbLine
  8
FOREGROUND
 62
256
370
9
  6
CONTINUOUS
 10
209.4031677246094034
 20
15.6798477172851598
 30
0.0
 11
209.4735107421875
 21
15.6798477172851598
 31
0.0
  0
LINE
  5
4E9
100
AcDbEntity
100
AcDbLine
  8
FOREGROUND
 62
256
370
9
  6
CONTINUOUS
 10
209.6141815185546875
 20
15.6798477172851598
 30
0.0
 11
209.6844787597655966
 21
15.6798477172851598
 31
0.0
  0
LINE
  5
4EA
100
AcDbEntity
100
AcDbLine
  8
FOREGROUND
 62
256
370
9
  6
CONTINUOUS
 10
210.0009613037109091
 20
15.6798477172851598
 30
0.0
 11
210.0712738037109091
 21
15.6798477172851598
 31
0.0
  0
LINE
  5
4EB
100
AcDbEntity
100
AcDbLine
  8
FOREGROUND
 62
256
370
9
  6
CONTINUOUS
 10
210.3174285888671875
 20
15.6798477172851598
 30
0.0
 11
210.4229278564453125
 21
15.6798477172851598
 31
0.0
  0
LINE
  5
4EC
100
AcDbEntity
100
AcDbLine
  8
FOREGROUND
 62
256
370
9
  6
CONTINUOUS
 10
210.6690521240234091
 20
15.6798477172851598
 30
0.0
 11
210.7393951416015909
 21
15.6798477172851598
 31
0.0
  0
LINE
  5
4ED
100
AcDbEntity
100
AcDbLine
  8
FOREGROUND
 62
256
370
9
  6
CONTINUOUS
 10
211.0910186767578125
 20
15.6798477172851598
 30
0.0
 11
211.1613616943359091
 21
15.6798477172851598
 31
0.0
  0
LINE
  5
4EE
100
AcDbEntity
100
AcDbLine
  8
FOREGROUND
 62
256
370
9
  6
CONTINUOUS
 10
195.1970367431640909
 20
15.7146835327148402
 30
0.0
 11
195.2673492431640909
 21
15.7146835327148402
 31
0.0
  0
LINE
  5
4EF
100
AcDbEntity
100
AcDbLine
  8
FOREGROUND
 62
256
370
9
  6
CONTINUOUS
 10
195.3728485107421875
 20
15.7146835327148402
 30
0.0
 11
195.4431610107421875
 21
15.7146835327148402
 31
0.0
  0
LINE
  5
4F0
100
AcDbEntity
100
AcDbLine
  8
FOREGROUND
 62
256
370
9
  6
CONTINUOUS
 10
195.8299713134765909
 20
15.7146835327148402
 30
0.0
 11
195.9002838134765909
 21
15.7146835327148402
 31
0.0
  0
LINE
  5
4F1
100
AcDbEntity
100
AcDbLine
  8
FOREGROUND
 62
256
370
9
  6
CONTINUOUS
 10
196.4277648925780966
 20
15.7146835327148402
 30
0.0
 11
196.4980773925780966
 21
15.7146835327148402
 31
0.0
  0
LINE
  5
4F2
100
AcDbEntity
100
AcDbLine
  8
FOREGROUND
 62
256
370
9
  6
CONTINUOUS
 10
196.6035766601561932
 20
15.7146835327148402
 30
0.0
 11
196.6738891601561932
 21
15.7146835327148402
 31
0.0
  0
LINE
  5
4F3
100
AcDbEntity
100
AcDbLine
  8
FOREGROUND
 62
256
370
9
  6
CONTINUOUS
 10
197.0606994628905966
 20
15.7146835327148402
 30
0.0
 11
197.3420257568359091
 21
15.7146835327148402
 31
0.0
  0
LINE
  5
4F4
100
AcDbEntity
100
AcDbLine
  8
FOREGROUND
 62
256
370
9
  6
CONTINUOUS
 10
197.9046173095703125
 20
15.7146835327148402
 30
0.0
 11
197.9749450683594034
 21
15.7146835327148402
 31
0.0
  0
LINE
  5
4F5
100
AcDbEntity
100
AcDbLine
  8
FOREGROUND
 62
256
370
9
  6
CONTINUOUS
 10
198.4672393798828125
 20
15.7146835327148402
 30
0.0
 11
198.5375823974609091
 21
15.7146835327148402
 31
0.0
  0
LINE
  5
4F6
100
AcDbEntity
100
AcDbLine
  8
FOREGROUND
 62
256
370
9
  6
CONTINUOUS
 10
198.6078948974609091
 20
15.7146835327148402
 30
0.0
 11
198.7837066650390909
 21
15.7146835327148402
 31
0.0
  0
LINE
  5
4F7
100
AcDbEntity
100
AcDbLine
  8
FOREGROUND
 62
256
370
9
  6
CONTINUOUS
 10
198.9947204589844034
 20
15.7146835327148402
 30
0.0
 11
199.1001892089844034
 21
15.7146835327148402
 31
0.0
  0
LINE
  5
4F8
100
AcDbEntity
100
AcDbLine
  8
FOREGROUND
 62
256
370
9
  6
CONTINUOUS
 10
199.5924987792969034
 20
15.7146835327148402
 30
0.0
 11
199.6979675292969034
 21
15.7146835327148402
 31
0.0
  0
LINE
  5
4F9
100
AcDbEntity
100
AcDbLine
  8
FOREGROUND
 62
256
370
9
  6
CONTINUOUS
 10
199.873779296875
 20
15.7146835327148402
 30
0.0
 11
199.9089813232421875
 21
15.7146835327148402
 31
0.0
  0
LINE
  5
4FA
100
AcDbEntity
100
AcDbLine
  8
FOREGROUND
 62
256
370
9
  6
CONTINUOUS
 10
200.0144500732421875
 20
15.7146835327148402
 30
0.0
 11
200.1199340820311932
 21
15.7146835327148402
 31
0.0
  0
LINE
  5
4FB
100
AcDbEntity
100
AcDbLine
  8
FOREGROUND
 62
256
370
9
  6
CONTINUOUS
 10
200.2254486083984091
 20
15.7146835327148402
 30
0.0
 11
200.2957458496094034
 21
15.7146835327148402
 31
0.0
  0
LINE
  5
4FC
100
AcDbEntity
100
AcDbLine
  8
FOREGROUND
 62
256
370
9
  6
CONTINUOUS
 10
200.4012603759765909
 20
15.7146835327148402
 30
0.0
 11
200.4715576171875
 21
15.7146835327148402
 31
0.0
  0
LINE
  5
4FD
100
AcDbEntity
100
AcDbLine
  8
FOREGROUND
 62
256
370
9
  6
CONTINUOUS
 10
200.8232269287109091
 20
15.7146835327148402
 30
0.0
 11
200.8583831787109091
 21
15.7146835327148402
 31
0.0
  0
LINE
  5
4FE
100
AcDbEntity
100
AcDbLine
  8
FOREGROUND
 62
256
370
9
  6
CONTINUOUS
 10
201.0341949462890909
 20
15.7146835327148402
 30
0.0
 11
201.1045227050780966
 21
15.7146835327148402
 31
0.0
  0
LINE
  5
4FF
100
AcDbEntity
100
AcDbLine
  8
FOREGROUND
 62
256
370
9
  6
CONTINUOUS
 10
201.5616760253905966
 20
15.7146835327148402
 30
0.0
 11
201.7374877929688068
 21
15.7146835327148402
 31
0.0
  0
LINE
  5
500
100
AcDbEntity
100
AcDbLine
  8
FOREGROUND
 62
256
370
9
  6
CONTINUOUS
 10
201.9132995605469034
 20
15.7146835327148402
 30
0.0
 11
202.018798828125
 21
15.7146835327148402
 31
0.0
  0
LINE
  5
501
100
AcDbEntity
100
AcDbLine
  8
FOREGROUND
 62
256
370
9
  6
CONTINUOUS
 10
202.6868896484375
 20
15.7146835327148402
 30
0.0
 11
202.7572174072265909
 21
15.7146835327148402
 31
0.0
  0
LINE
  5
502
100
AcDbEntity
100
AcDbLine
  8
FOREGROUND
 62
256
370
9
  6
CONTINUOUS
 10
203.1088714599609091
 20
15.7146835327148402
 30
0.0
 11
203.1791839599609091
 21
15.7146835327148402
 31
0.0
  0
LINE
  5
503
100
AcDbEntity
100
AcDbLine
  8
FOREGROUND
 62
256
370
9
  6
CONTINUOUS
 10
203.4956512451171875
 20
15.7146835327148402
 30
0.0
 11
203.5660095214844034
 21
15.7146835327148402
 31
0.0
  0
LINE
  5
504
100
AcDbEntity
100
AcDbLine
  8
FOREGROUND
 62
256
370
9
  6
CONTINUOUS
 10
203.8473052978515909
 20
15.7146835327148402
 30
0.0
 11
203.8824768066405966
 21
15.7146835327148402
 31
0.0
  0
LINE
  5
505
100
AcDbEntity
100
AcDbLine
  8
FOREGROUND
 62
256
370
9
  6
CONTINUOUS
 10
204.0582885742188068
 20
15.7146835327148402
 30
0.0
 11
204.1989288330078125
 21
15.7146835327148402
 31
0.0
  0
LINE
  5
506
100
AcDbEntity
100
AcDbLine
  8
FOREGROUND
 62
256
370
9
  6
CONTINUOUS
 10
204.304443359375
 20
15.7146835327148402
 30
0.0
 11
204.339599609375
 21
15.7146835327148402
 31
0.0
  0
LINE
  5
507
100
AcDbEntity
100
AcDbLine
  8
FOREGROUND
 62
256
370
9
  6
CONTINUOUS
 10
204.6209106445311932
 20
15.7146835327148402
 30
0.0
 11
204.6912231445311932
 21
15.7146835327148402
 31
0.0
  0
LINE
  5
508
100
AcDbEntity
100
AcDbLine
  8
FOREGROUND
 62
256
370
9
  6
CONTINUOUS
 10
204.7967376708984091
 20
15.7146835327148402
 30
0.0
 11
204.8670349121094034
 21
15.7146835327148402
 31
0.0
  0
LINE
  5
509
100
AcDbEntity
100
AcDbLine
  8
FOREGROUND
 62
256
370
9
  6
CONTINUOUS
 10
205.2187042236328125
 20
15.7146835327148402
 30
0.0
 11
205.2538604736328125
 21
15.7146835327148402
 31
0.0
  0
LINE
  5
50A
100
AcDbEntity
100
AcDbLine
  8
FOREGROUND
 62
256
370
9
  6
CONTINUOUS
 10
205.4296722412109091
 20
15.7146835327148402
 30
0.0
 11
205.5703277587890909
 21
15.7146835327148402
 31
0.0
  0
LINE
  5
50B
100
AcDbEntity
100
AcDbLine
  8
FOREGROUND
 62
256
370
9
  6
CONTINUOUS
 10
205.6758270263671875
 20
15.7146835327148402
 30
0.0
 11
205.7109985351561932
 21
15.7146835327148402
 31
0.0
  0
LINE
  5
50C
100
AcDbEntity
100
AcDbLine
  8
FOREGROUND
 62
256
370
9
  6
CONTINUOUS
 10
205.9922943115234091
 20
15.7146835327148402
 30
0.0
 11
206.0626220703125
 21
15.7146835327148402
 31
0.0
  0
LINE
  5
50D
100
AcDbEntity
100
AcDbLine
  8
FOREGROUND
 62
256
370
9
  6
CONTINUOUS
 10
206.2735900878905966
 20
15.7146835327148402
 30
0.0
 11
206.4142608642578125
 21
15.7146835327148402
 31
0.0
  0
LINE
  5
50E
100
AcDbEntity
100
AcDbLine
  8
FOREGROUND
 62
256
370
9
  6
CONTINUOUS
 10
206.6955413818359091
 20
15.7146835327148402
 30
0.0
 11
206.7307434082030966
 21
15.7146835327148402
 31
0.0
  0
LINE
  5
50F
100
AcDbEntity
100
AcDbLine
  8
FOREGROUND
 62
256
370
9
  6
CONTINUOUS
 10
206.9065551757811932
 20
15.7146835327148402
 30
0.0
 11
206.9768676757811932
 21
15.7146835327148402
 31
0.0
  0
LINE
  5
510
100
AcDbEntity
100
AcDbLine
  8
FOREGROUND
 62
256
370
9
  6
CONTINUOUS
 10
207.3636779785155966
 20
15.7146835327148402
 30
0.0
 11
207.4339904785155966
 21
15.7146835327148402
 31
0.0
  0
LINE
  5
511
100
AcDbEntity
100
AcDbLine
  8
FOREGROUND
 62
256
370
9
  6
CONTINUOUS
 10
207.7856140136719034
 20
15.7146835327148402
 30
0.0
 11
207.8208160400390909
 21
15.7146835327148402
 31
0.0
  0
LINE
  5
512
100
AcDbEntity
100
AcDbLine
  8
FOREGROUND
 62
256
370
9
  6
CONTINUOUS
 10
208.2779388427734091
 20
15.7146835327148402
 30
0.0
 11
208.3834228515625
 21
15.7146835327148402
 31
0.0
  0
LINE
  5
513
100
AcDbEntity
100
AcDbLine
  8
FOREGROUND
 62
256
370
9
  6
CONTINUOUS
 10
209.0867004394530966
 20
15.7146835327148402
 30
0.0
 11
209.1218566894530966
 21
15.7146835327148402
 31
0.0
  0
LINE
  5
514
100
AcDbEntity
100
AcDbLine
  8
FOREGROUND
 62
256
370
9
  6
CONTINUOUS
 10
209.2273559570311932
 20
15.7146835327148402
 30
0.0
 11
209.3328399658203125
 21
15.7146835327148402
 31
0.0
  0
LINE
  5
515
100
AcDbEntity
100
AcDbLine
  8
FOREGROUND
 62
256
370
9
  6
CONTINUOUS
 10
209.4383239746094034
 20
15.7146835327148402
 30
0.0
 11
209.5086669921875
 21
15.7146835327148402
 31
0.0
  0
LINE
  5
516
100
AcDbEntity
100
AcDbLine
  8
FOREGROUND
 62
256
370
9
  6
CONTINUOUS
 10
209.6141815185546875
 20
15.7146835327148402
 30
0.0
 11
209.6844787597655966
 21
15.7146835327148402
 31
0.0
  0
LINE
  5
517
100
AcDbEntity
100
AcDbLine
  8
FOREGROUND
 62
256
370
9
  6
CONTINUOUS
 10
210.0009613037109091
 20
15.7146835327148402
 30
0.0
 11
210.0712738037109091
 21
15.7146835327148402
 31
0.0
  0
LINE
  5
518
100
AcDbEntity
100
AcDbLine
  8
FOREGROUND
 62
256
370
9
  6
CONTINUOUS
 10
210.2822723388671875
 20
15.7146835327148402
 30
0.0
 11
210.4229278564453125
 21
15.7146835327148402
 31
0.0
  0
LINE
  5
519
100
AcDbEntity
100
AcDbLine
  8
FOREGROUND
 62
256
370
9
  6
CONTINUOUS
 10
210.6690521240234091
 20
15.7146835327148402
 30
0.0
 11
210.7393951416015909
 21
15.7146835327148402
 31
0.0
  0
LINE
  5
51A
100
AcDbEntity
100
AcDbLine
  8
FOREGROUND
 62
256
370
9
  6
CONTINUOUS
 10
211.0910186767578125
 20
15.7146835327148402
 30
0.0
 11
211.1613616943359091
 21
15.7146835327148402
 31
0.0
  0
LINE
  5
51B
100
AcDbEntity
100
AcDbLine
  8
FOREGROUND
 62
256
370
9
  6
CONTINUOUS
 10
195.1970367431640909
 20
15.7495307922363299
 30
0.0
 11
195.4431610107421875
 21
15.7495307922363299
 31
0.0
  0
LINE
  5
51C
100
AcDbEntity
100
AcDbLine
  8
FOREGROUND
 62
256
370
9
  6
CONTINUOUS
 10
195.8299713134765909
 20
15.7495307922363299
 30
0.0
 11
195.9002838134765909
 21
15.7495307922363299
 31
0.0
  0
LINE
  5
51D
100
AcDbEntity
100
AcDbLine
  8
FOREGROUND
 62
256
370
9
  6
CONTINUOUS
 10
196.4277648925780966
 20
15.7495307922363299
 30
0.0
 11
196.6738891601561932
 21
15.7495307922363299
 31
0.0
  0
LINE
  5
51E
100
AcDbEntity
100
AcDbLine
  8
FOREGROUND
 62
256
370
9
  6
CONTINUOUS
 10
197.0606994628905966
 20
15.7495307922363299
 30
0.0
 11
197.3068542480469034
 21
15.7495307922363299
 31
0.0
  0
LINE
  5
51F
100
AcDbEntity
100
AcDbLine
  8
FOREGROUND
 62
256
370
9
  6
CONTINUOUS
 10
197.9046173095703125
 20
15.7495307922363299
 30
0.0
 11
197.9749450683594034
 21
15.7495307922363299
 31
0.0
  0
LINE
  5
520
100
AcDbEntity
100
AcDbLine
  8
FOREGROUND
 62
256
370
9
  6
CONTINUOUS
 10
198.4672393798828125
 20
15.7495307922363299
 30
0.0
 11
198.7485656738280966
 21
15.7495307922363299
 31
0.0
  0
LINE
  5
521
100
AcDbEntity
100
AcDbLine
  8
FOREGROUND
 62
256
370
9
  6
CONTINUOUS
 10
198.9947204589844034
 20
15.7495307922363299
 30
0.0
 11
199.1001892089844034
 21
15.7495307922363299
 31
0.0
  0
LINE
  5
522
100
AcDbEntity
100
AcDbLine
  8
FOREGROUND
 62
256
370
9
  6
CONTINUOUS
 10
199.5924987792969034
 20
15.7495307922363299
 30
0.0
 11
199.6979675292969034
 21
15.7495307922363299
 31
0.0
  0
LINE
  5
523
100
AcDbEntity
100
AcDbLine
  8
FOREGROUND
 62
256
370
9
  6
CONTINUOUS
 10
199.873779296875
 20
15.7495307922363299
 30
0.0
 11
199.9089813232421875
 21
15.7495307922363299
 31
0.0
  0
LINE
  5
524
100
AcDbEntity
100
AcDbLine
  8
FOREGROUND
 62
256
370
9
  6
CONTINUOUS
 10
200.0144500732421875
 20
15.7495307922363299
 30
0.0
 11
200.1199340820311932
 21
15.7495307922363299
 31
0.0
  0
LINE
  5
525
100
AcDbEntity
100
AcDbLine
  8
FOREGROUND
 62
256
370
9
  6
CONTINUOUS
 10
200.2606048583984091
 20
15.7495307922363299
 30
0.0
 11
200.3309173583984091
 21
15.7495307922363299
 31
0.0
  0
LINE
  5
526
100
AcDbEntity
100
AcDbLine
  8
FOREGROUND
 62
256
370
9
  6
CONTINUOUS
 10
200.4012603759765909
 20
15.7495307922363299
 30
0.0
 11
200.4715576171875
 21
15.7495307922363299
 31
0.0
  0
LINE
  5
527
100
AcDbEntity
100
AcDbLine
  8
FOREGROUND
 62
256
370
9
  6
CONTINUOUS
 10
200.8232269287109091
 20
15.7495307922363299
 30
0.0
 11
200.8935546875
 21
15.7495307922363299
 31
0.0
  0
LINE
  5
528
100
AcDbEntity
100
AcDbLine
  8
FOREGROUND
 62
256
370
9
  6
CONTINUOUS
 10
201.0341949462890909
 20
15.7495307922363299
 30
0.0
 11
201.1045227050780966
 21
15.7495307922363299
 31
0.0
  0
LINE
  5
529
100
AcDbEntity
100
AcDbLine
  8
FOREGROUND
 62
256
370
9
  6
CONTINUOUS
 10
201.5264739990234091
 20
15.7495307922363299
 30
0.0
 11
201.7022857666015909
 21
15.7495307922363299
 31
0.0
  0
LINE
  5
52A
100
AcDbEntity
100
AcDbLine
  8
FOREGROUND
 62
256
370
9
  6
CONTINUOUS
 10
201.9132995605469034
 20
15.7495307922363299
 30
0.0
 11
202.018798828125
 21
15.7495307922363299
 31
0.0
  0
LINE
  5
52B
100
AcDbEntity
100
AcDbLine
  8
FOREGROUND
 62
256
370
9
  6
CONTINUOUS
 10
202.6868896484375
 20
15.7495307922363299
 30
0.0
 11
203.1791839599609091
 21
15.7495307922363299
 31
0.0
  0
LINE
  5
52C
100
AcDbEntity
100
AcDbLine
  8
FOREGROUND
 62
256
370
9
  6
CONTINUOUS
 10
203.4956512451171875
 20
15.7495307922363299
 30
0.0
 11
203.5660095214844034
 21
15.7495307922363299
 31
0.0
  0
LINE
  5
52D
100
AcDbEntity
100
AcDbLine
  8
FOREGROUND
 62
256
370
9
  6
CONTINUOUS
 10
203.8473052978515909
 20
15.7495307922363299
 30
0.0
 11
203.8824768066405966
 21
15.7495307922363299
 31
0.0
  0
LINE
  5
52E
100
AcDbEntity
100
AcDbLine
  8
FOREGROUND
 62
256
370
9
  6
CONTINUOUS
 10
204.0582885742188068
 20
15.7495307922363299
 30
0.0
 11
204.1637878417969034
 21
15.7495307922363299
 31
0.0
  0
LINE
  5
52F
100
AcDbEntity
100
AcDbLine
  8
FOREGROUND
 62
256
370
9
  6
CONTINUOUS
 10
204.304443359375
 20
15.7495307922363299
 30
0.0
 11
204.339599609375
 21
15.7495307922363299
 31
0.0
  0
LINE
  5
530
100
AcDbEntity
100
AcDbLine
  8
FOREGROUND
 62
256
370
9
  6
CONTINUOUS
 10
204.6209106445311932
 20
15.7495307922363299
 30
0.0
 11
204.8670349121094034
 21
15.7495307922363299
 31
0.0
  0
LINE
  5
531
100
AcDbEntity
100
AcDbLine
  8
FOREGROUND
 62
256
370
9
  6
CONTINUOUS
 10
205.2187042236328125
 20
15.7495307922363299
 30
0.0
 11
205.2538604736328125
 21
15.7495307922363299
 31
0.0
  0
LINE
  5
532
100
AcDbEntity
100
AcDbLine
  8
FOREGROUND
 62
256
370
9
  6
CONTINUOUS
 10
205.4296722412109091
 20
15.7495307922363299
 30
0.0
 11
205.5351715087890909
 21
15.7495307922363299
 31
0.0
  0
LINE
  5
533
100
AcDbEntity
100
AcDbLine
  8
FOREGROUND
 62
256
370
9
  6
CONTINUOUS
 10
205.6758270263671875
 20
15.7495307922363299
 30
0.0
 11
205.7109985351561932
 21
15.7495307922363299
 31
0.0
  0
LINE
  5
534
100
AcDbEntity
100
AcDbLine
  8
FOREGROUND
 62
256
370
9
  6
CONTINUOUS
 10
205.9922943115234091
 20
15.7495307922363299
 30
0.0
 11
206.3790893554688068
 21
15.7495307922363299
 31
0.0
  0
LINE
  5
535
100
AcDbEntity
100
AcDbLine
  8
FOREGROUND
 62
256
370
9
  6
CONTINUOUS
 10
206.6955413818359091
 20
15.7495307922363299
 30
0.0
 11
206.7658996582030966
 21
15.7495307922363299
 31
0.0
  0
LINE
  5
536
100
AcDbEntity
100
AcDbLine
  8
FOREGROUND
 62
256
370
9
  6
CONTINUOUS
 10
206.9065551757811932
 20
15.7495307922363299
 30
0.0
 11
206.9768676757811932
 21
15.7495307922363299
 31
0.0
  0
LINE
  5
537
100
AcDbEntity
100
AcDbLine
  8
FOREGROUND
 62
256
370
9
  6
CONTINUOUS
 10
207.3636779785155966
 20
15.7495307922363299
 30
0.0
 11
207.4339904785155966
 21
15.7495307922363299
 31
0.0
  0
LINE
  5
538
100
AcDbEntity
100
AcDbLine
  8
FOREGROUND
 62
256
370
9
  6
CONTINUOUS
 10
207.7856140136719034
 20
15.7495307922363299
 30
0.0
 11
207.8208160400390909
 21
15.7495307922363299
 31
0.0
  0
LINE
  5
539
100
AcDbEntity
100
AcDbLine
  8
FOREGROUND
 62
256
370
9
  6
CONTINUOUS
 10
208.2779388427734091
 20
15.7495307922363299
 30
0.0
 11
208.3834228515625
 21
15.7495307922363299
 31
0.0
  0
LINE
  5
53A
100
AcDbEntity
100
AcDbLine
  8
FOREGROUND
 62
256
370
9
  6
CONTINUOUS
 10
209.0867004394530966
 20
15.7495307922363299
 30
0.0
 11
209.1218566894530966
 21
15.7495307922363299
 31
0.0
  0
LINE
  5
53B
100
AcDbEntity
100
AcDbLine
  8
FOREGROUND
 62
256
370
9
  6
CONTINUOUS
 10
209.2273559570311932
 20
15.7495307922363299
 30
0.0
 11
209.3328399658203125
 21
15.7495307922363299
 31
0.0
  0
LINE
  5
53C
100
AcDbEntity
100
AcDbLine
  8
FOREGROUND
 62
256
370
9
  6
CONTINUOUS
 10
209.4735107421875
 20
15.7495307922363299
 30
0.0
 11
209.5438232421875
 21
15.7495307922363299
 31
0.0
  0
LINE
  5
53D
100
AcDbEntity
100
AcDbLine
  8
FOREGROUND
 62
256
370
9
  6
CONTINUOUS
 10
209.6141815185546875
 20
15.7495307922363299
 30
0.0
 11
209.6844787597655966
 21
15.7495307922363299
 31
0.0
  0
LINE
  5
53E
100
AcDbEntity
100
AcDbLine
  8
FOREGROUND
 62
256
370
9
  6
CONTINUOUS
 10
210.0009613037109091
 20
15.7495307922363299
 30
0.0
 11
210.3877716064453125
 21
15.7495307922363299
 31
0.0
  0
LINE
  5
53F
100
AcDbEntity
100
AcDbLine
  8
FOREGROUND
 62
256
370
9
  6
CONTINUOUS
 10
210.6690521240234091
 20
15.7495307922363299
 30
0.0
 11
211.1613616943359091
 21
15.7495307922363299
 31
0.0
  0
LINE
  5
540
100
AcDbEntity
100
AcDbLine
  8
FOREGROUND
 62
256
370
9
  6
CONTINUOUS
 10
195.232177734375
 20
15.7843666076660192
 30
0.0
 11
195.302490234375
 21
15.7843666076660192
 31
0.0
  0
LINE
  5
541
100
AcDbEntity
100
AcDbLine
  8
FOREGROUND
 62
256
370
9
  6
CONTINUOUS
 10
195.4080047607421875
 20
15.7843666076660192
 30
0.0
 11
195.4783020019530966
 21
15.7843666076660192
 31
0.0
  0
LINE
  5
542
100
AcDbEntity
100
AcDbLine
  8
FOREGROUND
 62
256
370
9
  6
CONTINUOUS
 10
195.8651275634765909
 20
15.7843666076660192
 30
0.0
 11
195.9354705810546875
 21
15.7843666076660192
 31
0.0
  0
LINE
  5
543
100
AcDbEntity
100
AcDbLine
  8
FOREGROUND
 62
256
370
9
  6
CONTINUOUS
 10
196.4629211425780966
 20
15.7843666076660192
 30
0.0
 11
196.5332183837890909
 21
15.7843666076660192
 31
0.0
  0
LINE
  5
544
100
AcDbEntity
100
AcDbLine
  8
FOREGROUND
 62
256
370
9
  6
CONTINUOUS
 10
196.6387329101561932
 20
15.7843666076660192
 30
0.0
 11
196.7090759277344034
 21
15.7843666076660192
 31
0.0
  0
LINE
  5
545
100
AcDbEntity
100
AcDbLine
  8
FOREGROUND
 62
256
370
9
  6
CONTINUOUS
 10
197.0958557128905966
 20
15.7843666076660192
 30
0.0
 11
197.3068542480469034
 21
15.7843666076660192
 31
0.0
  0
LINE
  5
546
100
AcDbEntity
100
AcDbLine
  8
FOREGROUND
 62
256
370
9
  6
CONTINUOUS
 10
197.9398040771484091
 20
15.7843666076660192
 30
0.0
 11
198.0101165771484091
 21
15.7843666076660192
 31
0.0
  0
LINE
  5
547
100
AcDbEntity
100
AcDbLine
  8
FOREGROUND
 62
256
370
9
  6
CONTINUOUS
 10
198.5023956298828125
 20
15.7843666076660192
 30
0.0
 11
198.57275390625
 21
15.7843666076660192
 31
0.0
  0
LINE
  5
548
100
AcDbEntity
100
AcDbLine
  8
FOREGROUND
 62
256
370
9
  6
CONTINUOUS
 10
198.7133941650390909
 20
15.7843666076660192
 30
0.0
 11
198.8189086914061932
 21
15.7843666076660192
 31
0.0
  0
LINE
  5
549
100
AcDbEntity
100
AcDbLine
  8
FOREGROUND
 62
256
370
9
  6
CONTINUOUS
 10
199.0298614501953125
 20
15.7843666076660192
 30
0.0
 11
199.1353759765625
 21
15.7843666076660192
 31
0.0
  0
LINE
  5
54A
100
AcDbEntity
100
AcDbLine
  8
FOREGROUND
 62
256
370
9
  6
CONTINUOUS
 10
199.5924987792969034
 20
15.7843666076660192
 30
0.0
 11
199.6979675292969034
 21
15.7843666076660192
 31
0.0
  0
LINE
  5
54B
100
AcDbEntity
100
AcDbLine
  8
FOREGROUND
 62
256
370
9
  6
CONTINUOUS
 10
199.9089813232421875
 20
15.7843666076660192
 30
0.0
 11
199.9441223144530966
 21
15.7843666076660192
 31
0.0
  0
LINE
  5
54C
100
AcDbEntity
100
AcDbLine
  8
FOREGROUND
 62
256
370
9
  6
CONTINUOUS
 10
200.0144500732421875
 20
15.7843666076660192
 30
0.0
 11
200.1199340820311932
 21
15.7843666076660192
 31
0.0
  0
LINE
  5
54D
100
AcDbEntity
100
AcDbLine
  8
FOREGROUND
 62
256
370
9
  6
CONTINUOUS
 10
200.2957458496094034
 20
15.7843666076660192
 30
0.0
 11
200.3309173583984091
 21
15.7843666076660192
 31
0.0
  0
LINE
  5
54E
100
AcDbEntity
100
AcDbLine
  8
FOREGROUND
 62
256
370
9
  6
CONTINUOUS
 10
200.4364166259765909
 20
15.7843666076660192
 30
0.0
 11
200.5067596435546875
 21
15.7843666076660192
 31
0.0
  0
LINE
  5
54F
100
AcDbEntity
100
AcDbLine
  8
FOREGROUND
 62
256
370
9
  6
CONTINUOUS
 10
200.8583831787109091
 20
15.7843666076660192
 30
0.0
 11
200.8935546875
 21
15.7843666076660192
 31
0.0
  0
LINE
  5
550
100
AcDbEntity
100
AcDbLine
  8
FOREGROUND
 62
256
370
9
  6
CONTINUOUS
 10
201.0341949462890909
 20
15.7843666076660192
 30
0.0
 11
201.1045227050780966
 21
15.7843666076660192
 31
0.0
  0
LINE
  5
551
100
AcDbEntity
100
AcDbLine
  8
FOREGROUND
 62
256
370
9
  6
CONTINUOUS
 10
201.4913330078125
 20
15.7843666076660192
 30
0.0
 11
201.6671447753905966
 21
15.7843666076660192
 31
0.0
  0
LINE
  5
552
100
AcDbEntity
100
AcDbLine
  8
FOREGROUND
 62
256
370
9
  6
CONTINUOUS
 10
201.9484558105469034
 20
15.7843666076660192
 30
0.0
 11
202.0539703369140909
 21
15.7843666076660192
 31
0.0
  0
LINE
  5
553
100
AcDbEntity
100
AcDbLine
  8
FOREGROUND
 62
256
370
9
  6
CONTINUOUS
 10
202.7220611572265909
 20
15.7843666076660192
 30
0.0
 11
202.7923889160155966
 21
15.7843666076660192
 31
0.0
  0
LINE
  5
554
100
AcDbEntity
100
AcDbLine
  8
FOREGROUND
 62
256
370
9
  6
CONTINUOUS
 10
203.1440277099609091
 20
15.7843666076660192
 30
0.0
 11
203.2143402099609091
 21
15.7843666076660192
 31
0.0
  0
LINE
  5
555
100
AcDbEntity
100
AcDbLine
  8
FOREGROUND
 62
256
370
9
  6
CONTINUOUS
 10
203.5308074951171875
 20
15.7843666076660192
 30
0.0
 11
203.6011505126953125
 21
15.7843666076660192
 31
0.0
  0
LINE
  5
556
100
AcDbEntity
100
AcDbLine
  8
FOREGROUND
 62
256
370
9
  6
CONTINUOUS
 10
203.8824768066405966
 20
15.7843666076660192
 30
0.0
 11
203.9176330566405966
 21
15.7843666076660192
 31
0.0
  0
LINE
  5
557
100
AcDbEntity
100
AcDbLine
  8
FOREGROUND
 62
256
370
9
  6
CONTINUOUS
 10
204.0231170654296875
 20
15.7843666076660192
 30
0.0
 11
204.1637878417969034
 21
15.7843666076660192
 31
0.0
  0
LINE
  5
558
100
AcDbEntity
100
AcDbLine
  8
FOREGROUND
 62
256
370
9
  6
CONTINUOUS
 10
204.339599609375
 20
15.7843666076660192
 30
0.0
 11
204.3747406005859091
 21
15.7843666076660192
 31
0.0
  0
LINE
  5
559
100
AcDbEntity
100
AcDbLine
  8
FOREGROUND
 62
256
370
9
  6
CONTINUOUS
 10
204.6560821533203125
 20
15.7843666076660192
 30
0.0
 11
204.7263793945311932
 21
15.7843666076660192
 31
0.0
  0
LINE
  5
55A
100
AcDbEntity
100
AcDbLine
  8
FOREGROUND
 62
256
370
9
  6
CONTINUOUS
 10
204.8318939208984091
 20
15.7843666076660192
 30
0.0
 11
204.9022064208984091
 21
15.7843666076660192
 31
0.0
  0
LINE
  5
55B
100
AcDbEntity
100
AcDbLine
  8
FOREGROUND
 62
256
370
9
  6
CONTINUOUS
 10
205.2538604736328125
 20
15.7843666076660192
 30
0.0
 11
205.2890014648438068
 21
15.7843666076660192
 31
0.0
  0
LINE
  5
55C
100
AcDbEntity
100
AcDbLine
  8
FOREGROUND
 62
256
370
9
  6
CONTINUOUS
 10
205.3945159912109091
 20
15.7843666076660192
 30
0.0
 11
205.5351715087890909
 21
15.7843666076660192
 31
0.0
  0
LINE
  5
55D
100
AcDbEntity
100
AcDbLine
  8
FOREGROUND
 62
256
370
9
  6
CONTINUOUS
 10
205.7109985351561932
 20
15.7843666076660192
 30
0.0
 11
205.7461395263671875
 21
15.7843666076660192
 31
0.0
  0
LINE
  5
55E
100
AcDbEntity
100
AcDbLine
  8
FOREGROUND
 62
256
370
9
  6
CONTINUOUS
 10
206.0274505615234091
 20
15.7843666076660192
 30
0.0
 11
206.0977630615234091
 21
15.7843666076660192
 31
0.0
  0
LINE
  5
55F
100
AcDbEntity
100
AcDbLine
  8
FOREGROUND
 62
256
370
9
  6
CONTINUOUS
 10
206.2384338378905966
 20
15.7843666076660192
 30
0.0
 11
206.3087768554688068
 21
15.7843666076660192
 31
0.0
  0
LINE
  5
560
100
AcDbEntity
100
AcDbLine
  8
FOREGROUND
 62
256
370
9
  6
CONTINUOUS
 10
206.7307434082030966
 20
15.7843666076660192
 30
0.0
 11
206.7658996582030966
 21
15.7843666076660192
 31
0.0
  0
LINE
  5
561
100
AcDbEntity
100
AcDbLine
  8
FOREGROUND
 62
256
370
9
  6
CONTINUOUS
 10
206.9065551757811932
 20
15.7843666076660192
 30
0.0
 11
206.9768676757811932
 21
15.7843666076660192
 31
0.0
  0
LINE
  5
562
100
AcDbEntity
100
AcDbLine
  8
FOREGROUND
 62
256
370
9
  6
CONTINUOUS
 10
207.3988342285155966
 20
15.7843666076660192
 30
0.0
 11
207.4691619873046875
 21
15.7843666076660192
 31
0.0
  0
LINE
  5
563
100
AcDbEntity
100
AcDbLine
  8
FOREGROUND
 62
256
370
9
  6
CONTINUOUS
 10
207.8208160400390909
 20
15.7843666076660192
 30
0.0
 11
207.8559722900390909
 21
15.7843666076660192
 31
0.0
  0
LINE
  5
564
100
AcDbEntity
100
AcDbLine
  8
FOREGROUND
 62
256
370
9
  6
CONTINUOUS
 10
208.3130950927734091
 20
15.7843666076660192
 30
0.0
 11
208.4185943603515909
 21
15.7843666076660192
 31
0.0
  0
LINE
  5
565
100
AcDbEntity
100
AcDbLine
  8
FOREGROUND
 62
256
370
9
  6
CONTINUOUS
 10
209.1218566894530966
 20
15.7843666076660192
 30
0.0
 11
209.1570281982421875
 21
15.7843666076660192
 31
0.0
  0
LINE
  5
566
100
AcDbEntity
100
AcDbLine
  8
FOREGROUND
 62
256
370
9
  6
CONTINUOUS
 10
209.2273559570311932
 20
15.7843666076660192
 30
0.0
 11
209.3328399658203125
 21
15.7843666076660192
 31
0.0
  0
LINE
  5
567
100
AcDbEntity
100
AcDbLine
  8
FOREGROUND
 62
256
370
9
  6
CONTINUOUS
 10
209.5086669921875
 20
15.7843666076660192
 30
0.0
 11
209.5438232421875
 21
15.7843666076660192
 31
0.0
  0
LINE
  5
568
100
AcDbEntity
100
AcDbLine
  8
FOREGROUND
 62
256
370
9
  6
CONTINUOUS
 10
209.6493225097655966
 20
15.7843666076660192
 30
0.0
 11
209.7196350097655966
 21
15.7843666076660192
 31
0.0
  0
LINE
  5
569
100
AcDbEntity
100
AcDbLine
  8
FOREGROUND
 62
256
370
9
  6
CONTINUOUS
 10
210.0361175537109091
 20
15.7843666076660192
 30
0.0
 11
210.1064453125
 21
15.7843666076660192
 31
0.0
  0
LINE
  5
56A
100
AcDbEntity
100
AcDbLine
  8
FOREGROUND
 62
256
370
9
  6
CONTINUOUS
 10
210.2471008300780966
 20
15.7843666076660192
 30
0.0
 11
210.3174285888671875
 21
15.7843666076660192
 31
0.0
  0
LINE
  5
56B
100
AcDbEntity
100
AcDbLine
  8
FOREGROUND
 62
256
370
9
  6
CONTINUOUS
 10
210.7042541503905966
 20
15.7843666076660192
 30
0.0
 11
210.7745361328125
 21
15.7843666076660192
 31
0.0
  0
LINE
  5
56C
100
AcDbEntity
100
AcDbLine
  8
FOREGROUND
 62
256
370
9
  6
CONTINUOUS
 10
211.1262054443359091
 20
15.7843666076660192
 30
0.0
 11
211.196533203125
 21
15.7843666076660192
 31
0.0
  0
LINE
  5
56D
100
AcDbEntity
100
AcDbLine
  8
FOREGROUND
 62
256
370
9
  6
CONTINUOUS
 10
195.232177734375
 20
15.8192100524902308
 30
0.0
 11
195.302490234375
 21
15.8192100524902308
 31
0.0
  0
LINE
  5
56E
100
AcDbEntity
100
AcDbLine
  8
FOREGROUND
 62
256
370
9
  6
CONTINUOUS
 10
195.4431610107421875
 20
15.8192100524902308
 30
0.0
 11
195.4783020019530966
 21
15.8192100524902308
 31
0.0
  0
LINE
  5
56F
100
AcDbEntity
100
AcDbLine
  8
FOREGROUND
 62
256
370
9
  6
CONTINUOUS
 10
195.8651275634765909
 20
15.8192100524902308
 30
0.0
 11
195.9354705810546875
 21
15.8192100524902308
 31
0.0
  0
LINE
  5
570
100
AcDbEntity
100
AcDbLine
  8
FOREGROUND
 62
256
370
9
  6
CONTINUOUS
 10
196.4629211425780966
 20
15.8192100524902308
 30
0.0
 11
196.5332183837890909
 21
15.8192100524902308
 31
0.0
  0
LINE
  5
571
100
AcDbEntity
100
AcDbLine
  8
FOREGROUND
 62
256
370
9
  6
CONTINUOUS
 10
196.6738891601561932
 20
15.8192100524902308
 30
0.0
 11
196.7090759277344034
 21
15.8192100524902308
 31
0.0
  0
LINE
  5
572
100
AcDbEntity
100
AcDbLine
  8
FOREGROUND
 62
256
370
9
  6
CONTINUOUS
 10
197.0958557128905966
 20
15.8192100524902308
 30
0.0
 11
197.1662139892578125
 21
15.8192100524902308
 31
0.0
  0
LINE
  5
573
100
AcDbEntity
100
AcDbLine
  8
FOREGROUND
 62
256
370
9
  6
CONTINUOUS
 10
197.2716674804688068
 20
15.8192100524902308
 30
0.0
 11
197.3068542480469034
 21
15.8192100524902308
 31
0.0
  0
LINE
  5
574
100
AcDbEntity
100
AcDbLine
  8
FOREGROUND
 62
256
370
9
  6
CONTINUOUS
 10
197.9398040771484091
 20
15.8192100524902308
 30
0.0
 11
198.0101165771484091
 21
15.8192100524902308
 31
0.0
  0
LINE
  5
575
100
AcDbEntity
100
AcDbLine
  8
FOREGROUND
 62
256
370
9
  6
CONTINUOUS
 10
198.5023956298828125
 20
15.8192100524902308
 30
0.0
 11
198.57275390625
 21
15.8192100524902308
 31
0.0
  0
LINE
  5
576
100
AcDbEntity
100
AcDbLine
  8
FOREGROUND
 62
256
370
9
  6
CONTINUOUS
 10
198.7837066650390909
 20
15.8192100524902308
 30
0.0
 11
198.8892059326171875
 21
15.8192100524902308
 31
0.0
  0
LINE
  5
577
100
AcDbEntity
100
AcDbLine
  8
FOREGROUND
 62
256
370
9
  6
CONTINUOUS
 10
199.0298614501953125
 20
15.8192100524902308
 30
0.0
 11
199.1353759765625
 21
15.8192100524902308
 31
0.0
  0
LINE
  5
578
100
AcDbEntity
100
AcDbLine
  8
FOREGROUND
 62
256
370
9
  6
CONTINUOUS
 10
199.6276550292969034
 20
15.8192100524902308
 30
0.0
 11
199.7331695556640909
 21
15.8192100524902308
 31
0.0
  0
LINE
  5
579
100
AcDbEntity
100
AcDbLine
  8
FOREGROUND
 62
256
370
9
  6
CONTINUOUS
 10
199.9089813232421875
 20
15.8192100524902308
 30
0.0
 11
199.9441223144530966
 21
15.8192100524902308
 31
0.0
  0
LINE
  5
57A
100
AcDbEntity
100
AcDbLine
  8
FOREGROUND
 62
256
370
9
  6
CONTINUOUS
 10
200.0144500732421875
 20
15.8192100524902308
 30
0.0
 11
200.0847930908203125
 21
15.8192100524902308
 31
0.0
  0
LINE
  5
57B
100
AcDbEntity
100
AcDbLine
  8
FOREGROUND
 62
256
370
9
  6
CONTINUOUS
 10
200.3309173583984091
 20
15.8192100524902308
 30
0.0
 11
200.3661041259765909
 21
15.8192100524902308
 31
0.0
  0
LINE
  5
57C
100
AcDbEntity
100
AcDbLine
  8
FOREGROUND
 62
256
370
9
  6
CONTINUOUS
 10
200.4364166259765909
 20
15.8192100524902308
 30
0.0
 11
200.5067596435546875
 21
15.8192100524902308
 31
0.0
  0
LINE
  5
57D
100
AcDbEntity
100
AcDbLine
  8
FOREGROUND
 62
256
370
9
  6
CONTINUOUS
 10
200.8935546875
 20
15.8192100524902308
 30
0.0
 11
200.9286956787109091
 21
15.8192100524902308
 31
0.0
  0
LINE
  5
57E
100
AcDbEntity
100
AcDbLine
  8
FOREGROUND
 62
256
370
9
  6
CONTINUOUS
 10
201.0341949462890909
 20
15.8192100524902308
 30
0.0
 11
201.1045227050780966
 21
15.8192100524902308
 31
0.0
  0
LINE
  5
57F
100
AcDbEntity
100
AcDbLine
  8
FOREGROUND
 62
256
370
9
  6
CONTINUOUS
 10
201.4561614990234091
 20
15.8192100524902308
 30
0.0
 11
201.5968322753905966
 21
15.8192100524902308
 31
0.0
  0
LINE
  5
580
100
AcDbEntity
100
AcDbLine
  8
FOREGROUND
 62
256
370
9
  6
CONTINUOUS
 10
201.9484558105469034
 20
15.8192100524902308
 30
0.0
 11
202.0539703369140909
 21
15.8192100524902308
 31
0.0
  0
LINE
  5
581
100
AcDbEntity
100
AcDbLine
  8
FOREGROUND
 62
256
370
9
  6
CONTINUOUS
 10
202.7220611572265909
 20
15.8192100524902308
 30
0.0
 11
202.7923889160155966
 21
15.8192100524902308
 31
0.0
  0
LINE
  5
582
100
AcDbEntity
100
AcDbLine
  8
FOREGROUND
 62
256
370
9
  6
CONTINUOUS
 10
203.1440277099609091
 20
15.8192100524902308
 30
0.0
 11
203.2143402099609091
 21
15.8192100524902308
 31
0.0
  0
LINE
  5
583
100
AcDbEntity
100
AcDbLine
  8
FOREGROUND
 62
256
370
9
  6
CONTINUOUS
 10
203.5308074951171875
 20
15.8192100524902308
 30
0.0
 11
203.6011505126953125
 21
15.8192100524902308
 31
0.0
  0
LINE
  5
584
100
AcDbEntity
100
AcDbLine
  8
FOREGROUND
 62
256
370
9
  6
CONTINUOUS
 10
203.8824768066405966
 20
15.8192100524902308
 30
0.0
 11
203.9176330566405966
 21
15.8192100524902308
 31
0.0
  0
LINE
  5
585
100
AcDbEntity
100
AcDbLine
  8
FOREGROUND
 62
256
370
9
  6
CONTINUOUS
 10
204.0231170654296875
 20
15.8192100524902308
 30
0.0
 11
204.1285858154296875
 21
15.8192100524902308
 31
0.0
  0
LINE
  5
586
100
AcDbEntity
100
AcDbLine
  8
FOREGROUND
 62
256
370
9
  6
CONTINUOUS
 10
204.339599609375
 20
15.8192100524902308
 30
0.0
 11
204.3747406005859091
 21
15.8192100524902308
 31
0.0
  0
LINE
  5
587
100
AcDbEntity
100
AcDbLine
  8
FOREGROUND
 62
256
370
9
  6
CONTINUOUS
 10
204.6560821533203125
 20
15.8192100524902308
 30
0.0
 11
204.7263793945311932
 21
15.8192100524902308
 31
0.0
  0
LINE
  5
588
100
AcDbEntity
100
AcDbLine
  8
FOREGROUND
 62
256
370
9
  6
CONTINUOUS
 10
204.8670349121094034
 20
15.8192100524902308
 30
0.0
 11
204.9022064208984091
 21
15.8192100524902308
 31
0.0
  0
LINE
  5
589
100
AcDbEntity
100
AcDbLine
  8
FOREGROUND
 62
256
370
9
  6
CONTINUOUS
 10
205.2538604736328125
 20
15.8192100524902308
 30
0.0
 11
205.2890014648438068
 21
15.8192100524902308
 31
0.0
  0
LINE
  5
58A
100
AcDbEntity
100
AcDbLine
  8
FOREGROUND
 62
256
370
9
  6
CONTINUOUS
 10
205.3945159912109091
 20
15.8192100524902308
 30
0.0
 11
205.4999847412109091
 21
15.8192100524902308
 31
0.0
  0
LINE
  5
58B
100
AcDbEntity
100
AcDbLine
  8
FOREGROUND
 62
256
370
9
  6
CONTINUOUS
 10
205.7109985351561932
 20
15.8192100524902308
 30
0.0
 11
205.7461395263671875
 21
15.8192100524902308
 31
0.0
  0
LINE
  5
58C
100
AcDbEntity
100
AcDbLine
  8
FOREGROUND
 62
256
370
9
  6
CONTINUOUS
 10
206.0274505615234091
 20
15.8192100524902308
 30
0.0
 11
206.0977630615234091
 21
15.8192100524902308
 31
0.0
  0
LINE
  5
58D
100
AcDbEntity
100
AcDbLine
  8
FOREGROUND
 62
256
370
9
  6
CONTINUOUS
 10
206.2735900878905966
 20
15.8192100524902308
 30
0.0
 11
206.3790893554688068
 21
15.8192100524902308
 31
0.0
  0
LINE
  5
58E
100
AcDbEntity
100
AcDbLine
  8
FOREGROUND
 62
256
370
9
  6
CONTINUOUS
 10
206.7658996582030966
 20
15.8192100524902308
 30
0.0
 11
206.8010559082030966
 21
15.8192100524902308
 31
0.0
  0
LINE
  5
58F
100
AcDbEntity
100
AcDbLine
  8
FOREGROUND
 62
256
370
9
  6
CONTINUOUS
 10
206.9065551757811932
 20
15.8192100524902308
 30
0.0
 11
206.9768676757811932
 21
15.8192100524902308
 31
0.0
  0
LINE
  5
590
100
AcDbEntity
100
AcDbLine
  8
FOREGROUND
 62
256
370
9
  6
CONTINUOUS
 10
207.3988342285155966
 20
15.8192100524902308
 30
0.0
 11
207.4691619873046875
 21
15.8192100524902308
 31
0.0
  0
LINE
  5
591
100
AcDbEntity
100
AcDbLine
  8
FOREGROUND
 62
256
370
9
  6
CONTINUOUS
 10
207.8208160400390909
 20
15.8192100524902308
 30
0.0
 11
207.8559722900390909
 21
15.8192100524902308
 31
0.0
  0
LINE
  5
592
100
AcDbEntity
100
AcDbLine
  8
FOREGROUND
 62
256
370
9
  6
CONTINUOUS
 10
208.3130950927734091
 20
15.8192100524902308
 30
0.0
 11
208.4185943603515909
 21
15.8192100524902308
 31
0.0
  0
LINE
  5
593
100
AcDbEntity
100
AcDbLine
  8
FOREGROUND
 62
256
370
9
  6
CONTINUOUS
 10
209.1218566894530966
 20
15.8192100524902308
 30
0.0
 11
209.1570281982421875
 21
15.8192100524902308
 31
0.0
  0
LINE
  5
594
100
AcDbEntity
100
AcDbLine
  8
FOREGROUND
 62
256
370
9
  6
CONTINUOUS
 10
209.2273559570311932
 20
15.8192100524902308
 30
0.0
 11
209.2976684570311932
 21
15.8192100524902308
 31
0.0
  0
LINE
  5
595
100
AcDbEntity
100
AcDbLine
  8
FOREGROUND
 62
256
370
9
  6
CONTINUOUS
 10
209.5438232421875
 20
15.8192100524902308
 30
0.0
 11
209.5789794921875
 21
15.8192100524902308
 31
0.0
  0
LINE
  5
596
100
AcDbEntity
100
AcDbLine
  8
FOREGROUND
 62
256
370
9
  6
CONTINUOUS
 10
209.6493225097655966
 20
15.8192100524902308
 30
0.0
 11
209.7196350097655966
 21
15.8192100524902308
 31
0.0
  0
LINE
  5
597
100
AcDbEntity
100
AcDbLine
  8
FOREGROUND
 62
256
370
9
  6
CONTINUOUS
 10
210.0361175537109091
 20
15.8192100524902308
 30
0.0
 11
210.1064453125
 21
15.8192100524902308
 31
0.0
  0
LINE
  5
598
100
AcDbEntity
100
AcDbLine
  8
FOREGROUND
 62
256
370
9
  6
CONTINUOUS
 10
210.2822723388671875
 20
15.8192100524902308
 30
0.0
 11
210.3877716064453125
 21
15.8192100524902308
 31
0.0
  0
LINE
  5
599
100
AcDbEntity
100
AcDbLine
  8
FOREGROUND
 62
256
370
9
  6
CONTINUOUS
 10
210.7042541503905966
 20
15.8192100524902308
 30
0.0
 11
210.7745361328125
 21
15.8192100524902308
 31
0.0
  0
LINE
  5
59A
100
AcDbEntity
100
AcDbLine
  8
FOREGROUND
 62
256
370
9
  6
CONTINUOUS
 10
211.1262054443359091
 20
15.8192100524902308
 30
0.0
 11
211.196533203125
 21
15.8192100524902308
 31
0.0
  0
LINE
  5
59B
100
AcDbEntity
100
AcDbLine
  8
FOREGROUND
 62
256
370
9
  6
CONTINUOUS
 10
195.232177734375
 20
15.8540458679199201
 30
0.0
 11
195.302490234375
 21
15.8540458679199201
 31
0.0
  0
LINE
  5
59C
100
AcDbEntity
100
AcDbLine
  8
FOREGROUND
 62
256
370
9
  6
CONTINUOUS
 10
195.4431610107421875
 20
15.8540458679199201
 30
0.0
 11
195.4783020019530966
 21
15.8540458679199201
 31
0.0
  0
LINE
  5
59D
100
AcDbEntity
100
AcDbLine
  8
FOREGROUND
 62
256
370
9
  6
CONTINUOUS
 10
195.8651275634765909
 20
15.8540458679199201
 30
0.0
 11
195.9354705810546875
 21
15.8540458679199201
 31
0.0
  0
LINE
  5
59E
100
AcDbEntity
100
AcDbLine
  8
FOREGROUND
 62
256
370
9
  6
CONTINUOUS
 10
196.4629211425780966
 20
15.8540458679199201
 30
0.0
 11
196.5332183837890909
 21
15.8540458679199201
 31
0.0
  0
LINE
  5
59F
100
AcDbEntity
100
AcDbLine
  8
FOREGROUND
 62
256
370
9
  6
CONTINUOUS
 10
196.6738891601561932
 20
15.8540458679199201
 30
0.0
 11
196.7090759277344034
 21
15.8540458679199201
 31
0.0
  0
LINE
  5
5A0
100
AcDbEntity
100
AcDbLine
  8
FOREGROUND
 62
256
370
9
  6
CONTINUOUS
 10
197.0958557128905966
 20
15.8540458679199201
 30
0.0
 11
197.1662139892578125
 21
15.8540458679199201
 31
0.0
  0
LINE
  5
5A1
100
AcDbEntity
100
AcDbLine
  8
FOREGROUND
 62
256
370
9
  6
CONTINUOUS
 10
197.3068542480469034
 20
15.8540458679199201
 30
0.0
 11
197.3771667480469034
 21
15.8540458679199201
 31
0.0
  0
LINE
  5
5A2
100
AcDbEntity
100
AcDbLine
  8
FOREGROUND
 62
256
370
9
  6
CONTINUOUS
 10
197.9398040771484091
 20
15.8540458679199201
 30
0.0
 11
198.0101165771484091
 21
15.8540458679199201
 31
0.0
  0
LINE
  5
5A3
100
AcDbEntity
100
AcDbLine
  8
FOREGROUND
 62
256
370
9
  6
CONTINUOUS
 10
198.5023956298828125
 20
15.8540458679199201
 30
0.0
 11
198.57275390625
 21
15.8540458679199201
 31
0.0
  0
LINE
  5
5A4
100
AcDbEntity
100
AcDbLine
  8
FOREGROUND
 62
256
370
9
  6
CONTINUOUS
 10
198.8189086914061932
 20
15.8540458679199201
 30
0.0
 11
198.9243774414061932
 21
15.8540458679199201
 31
0.0
  0
LINE
  5
5A5
100
AcDbEntity
100
AcDbLine
  8
FOREGROUND
 62
256
370
9
  6
CONTINUOUS
 10
199.0650329589844034
 20
15.8540458679199201
 30
0.0
 11
199.1705322265625
 21
15.8540458679199201
 31
0.0
  0
LINE
  5
5A6
100
AcDbEntity
100
AcDbLine
  8
FOREGROUND
 62
256
370
9
  6
CONTINUOUS
 10
199.6276550292969034
 20
15.8540458679199201
 30
0.0
 11
199.6979675292969034
 21
15.8540458679199201
 31
0.0
  0
LINE
  5
5A7
100
AcDbEntity
100
AcDbLine
  8
FOREGROUND
 62
256
370
9
  6
CONTINUOUS
 10
199.9089813232421875
 20
15.8540458679199201
 30
0.0
 11
200.0847930908203125
 21
15.8540458679199201
 31
0.0
  0
LINE
  5
5A8
100
AcDbEntity
100
AcDbLine
  8
FOREGROUND
 62
256
370
9
  6
CONTINUOUS
 10
200.3309173583984091
 20
15.8540458679199201
 30
0.0
 11
200.5067596435546875
 21
15.8540458679199201
 31
0.0
  0
LINE
  5
5A9
100
AcDbEntity
100
AcDbLine
  8
FOREGROUND
 62
256
370
9
  6
CONTINUOUS
 10
200.9286956787109091
 20
15.8540458679199201
 30
0.0
 11
200.9638824462890909
 21
15.8540458679199201
 31
0.0
  0
LINE
  5
5AA
100
AcDbEntity
100
AcDbLine
  8
FOREGROUND
 62
256
370
9
  6
CONTINUOUS
 10
201.0341949462890909
 20
15.8540458679199201
 30
0.0
 11
201.1045227050780966
 21
15.8540458679199201
 31
0.0
  0
LINE
  5
5AB
100
AcDbEntity
100
AcDbLine
  8
FOREGROUND
 62
256
370
9
  6
CONTINUOUS
 10
201.4561614990234091
 20
15.8540458679199201
 30
0.0
 11
201.5616760253905966
 21
15.8540458679199201
 31
0.0
  0
LINE
  5
5AC
100
AcDbEntity
100
AcDbLine
  8
FOREGROUND
 62
256
370
9
  6
CONTINUOUS
 10
201.9836273193359091
 20
15.8540458679199201
 30
0.0
 11
202.089111328125
 21
15.8540458679199201
 31
0.0
  0
LINE
  5
5AD
100
AcDbEntity
100
AcDbLine
  8
FOREGROUND
 62
256
370
9
  6
CONTINUOUS
 10
202.5110931396484091
 20
15.8540458679199201
 30
0.0
 11
202.5462341308594034
 21
15.8540458679199201
 31
0.0
  0
LINE
  5
5AE
100
AcDbEntity
100
AcDbLine
  8
FOREGROUND
 62
256
370
9
  6
CONTINUOUS
 10
202.7220611572265909
 20
15.8540458679199201
 30
0.0
 11
202.7923889160155966
 21
15.8540458679199201
 31
0.0
  0
LINE
  5
5AF
100
AcDbEntity
100
AcDbLine
  8
FOREGROUND
 62
256
370
9
  6
CONTINUOUS
 10
203.1440277099609091
 20
15.8540458679199201
 30
0.0
 11
203.2143402099609091
 21
15.8540458679199201
 31
0.0
  0
LINE
  5
5B0
100
AcDbEntity
100
AcDbLine
  8
FOREGROUND
 62
256
370
9
  6
CONTINUOUS
 10
203.5308074951171875
 20
15.8540458679199201
 30
0.0
 11
203.6011505126953125
 21
15.8540458679199201
 31
0.0
  0
LINE
  5
5B1
100
AcDbEntity
100
AcDbLine
  8
FOREGROUND
 62
256
370
9
  6
CONTINUOUS
 10
203.8824768066405966
 20
15.8540458679199201
 30
0.0
 11
203.9176330566405966
 21
15.8540458679199201
 31
0.0
  0
LINE
  5
5B2
100
AcDbEntity
100
AcDbLine
  8
FOREGROUND
 62
256
370
9
  6
CONTINUOUS
 10
203.9879608154296875
 20
15.8540458679199201
 30
0.0
 11
204.1285858154296875
 21
15.8540458679199201
 31
0.0
  0
LINE
  5
5B3
100
AcDbEntity
100
AcDbLine
  8
FOREGROUND
 62
256
370
9
  6
CONTINUOUS
 10
204.339599609375
 20
15.8540458679199201
 30
0.0
 11
204.3747406005859091
 21
15.8540458679199201
 31
0.0
  0
LINE
  5
5B4
100
AcDbEntity
100
AcDbLine
  8
FOREGROUND
 62
256
370
9
  6
CONTINUOUS
 10
204.6560821533203125
 20
15.8540458679199201
 30
0.0
 11
204.7263793945311932
 21
15.8540458679199201
 31
0.0
  0
LINE
  5
5B5
100
AcDbEntity
100
AcDbLine
  8
FOREGROUND
 62
256
370
9
  6
CONTINUOUS
 10
204.8670349121094034
 20
15.8540458679199201
 30
0.0
 11
204.9022064208984091
 21
15.8540458679199201
 31
0.0
  0
LINE
  5
5B6
100
AcDbEntity
100
AcDbLine
  8
FOREGROUND
 62
256
370
9
  6
CONTINUOUS
 10
205.2538604736328125
 20
15.8540458679199201
 30
0.0
 11
205.2890014648438068
 21
15.8540458679199201
 31
0.0
  0
LINE
  5
5B7
100
AcDbEntity
100
AcDbLine
  8
FOREGROUND
 62
256
370
9
  6
CONTINUOUS
 10
205.3593292236328125
 20
15.8540458679199201
 30
0.0
 11
205.4999847412109091
 21
15.8540458679199201
 31
0.0
  0
LINE
  5
5B8
100
AcDbEntity
100
AcDbLine
  8
FOREGROUND
 62
256
370
9
  6
CONTINUOUS
 10
205.7109985351561932
 20
15.8540458679199201
 30
0.0
 11
205.7461395263671875
 21
15.8540458679199201
 31
0.0
  0
LINE
  5
5B9
100
AcDbEntity
100
AcDbLine
  8
FOREGROUND
 62
256
370
9
  6
CONTINUOUS
 10
206.0274505615234091
 20
15.8540458679199201
 30
0.0
 11
206.0977630615234091
 21
15.8540458679199201
 31
0.0
  0
LINE
  5
5BA
100
AcDbEntity
100
AcDbLine
  8
FOREGROUND
 62
256
370
9
  6
CONTINUOUS
 10
206.3087768554688068
 20
15.8540458679199201
 30
0.0
 11
206.4142608642578125
 21
15.8540458679199201
 31
0.0
  0
LINE
  5
5BB
100
AcDbEntity
100
AcDbLine
  8
FOREGROUND
 62
256
370
9
  6
CONTINUOUS
 10
206.8010559082030966
 20
15.8540458679199201
 30
0.0
 11
206.8362121582030966
 21
15.8540458679199201
 31
0.0
  0
LINE
  5
5BC
100
AcDbEntity
100
AcDbLine
  8
FOREGROUND
 62
256
370
9
  6
CONTINUOUS
 10
206.9065551757811932
 20
15.8540458679199201
 30
0.0
 11
206.9768676757811932
 21
15.8540458679199201
 31
0.0
  0
LINE
  5
5BD
100
AcDbEntity
100
AcDbLine
  8
FOREGROUND
 62
256
370
9
  6
CONTINUOUS
 10
207.3988342285155966
 20
15.8540458679199201
 30
0.0
 11
207.4691619873046875
 21
15.8540458679199201
 31
0.0
  0
LINE
  5
5BE
100
AcDbEntity
100
AcDbLine
  8
FOREGROUND
 62
256
370
9
  6
CONTINUOUS
 10
207.8208160400390909
 20
15.8540458679199201
 30
0.0
 11
207.8559722900390909
 21
15.8540458679199201
 31
0.0
  0
LINE
  5
5BF
100
AcDbEntity
100
AcDbLine
  8
FOREGROUND
 62
256
370
9
  6
CONTINUOUS
 10
208.3482513427734091
 20
15.8540458679199201
 30
0.0
 11
208.4537658691405966
 21
15.8540458679199201
 31
0.0
  0
LINE
  5
5C0
100
AcDbEntity
100
AcDbLine
  8
FOREGROUND
 62
256
370
9
  6
CONTINUOUS
 10
208.8405303955078125
 20
15.8540458679199201
 30
0.0
 11
208.875732421875
 21
15.8540458679199201
 31
0.0
  0
LINE
  5
5C1
100
AcDbEntity
100
AcDbLine
  8
FOREGROUND
 62
256
370
9
  6
CONTINUOUS
 10
209.1218566894530966
 20
15.8540458679199201
 30
0.0
 11
209.2976684570311932
 21
15.8540458679199201
 31
0.0
  0
LINE
  5
5C2
100
AcDbEntity
100
AcDbLine
  8
FOREGROUND
 62
256
370
9
  6
CONTINUOUS
 10
209.5438232421875
 20
15.8540458679199201
 30
0.0
 11
209.7196350097655966
 21
15.8540458679199201
 31
0.0
  0
LINE
  5
5C3
100
AcDbEntity
100
AcDbLine
  8
FOREGROUND
 62
256
370
9
  6
CONTINUOUS
 10
210.0361175537109091
 20
15.8540458679199201
 30
0.0
 11
210.1064453125
 21
15.8540458679199201
 31
0.0
  0
LINE
  5
5C4
100
AcDbEntity
100
AcDbLine
  8
FOREGROUND
 62
256
370
9
  6
CONTINUOUS
 10
210.3174285888671875
 20
15.8540458679199201
 30
0.0
 11
210.4229278564453125
 21
15.8540458679199201
 31
0.0
  0
LINE
  5
5C5
100
AcDbEntity
100
AcDbLine
  8
FOREGROUND
 62
256
370
9
  6
CONTINUOUS
 10
210.7042541503905966
 20
15.8540458679199201
 30
0.0
 11
210.7745361328125
 21
15.8540458679199201
 31
0.0
  0
LINE
  5
5C6
100
AcDbEntity
100
AcDbLine
  8
FOREGROUND
 62
256
370
9
  6
CONTINUOUS
 10
211.1262054443359091
 20
15.8540458679199201
 30
0.0
 11
211.196533203125
 21
15.8540458679199201
 31
0.0
  0
LINE
  5
5C7
100
AcDbEntity
100
AcDbLine
  8
FOREGROUND
 62
256
370
9
  6
CONTINUOUS
 10
195.2673492431640909
 20
15.8888664245605504
 30
0.0
 11
195.3376922607421875
 21
15.8888664245605504
 31
0.0
  0
LINE
  5
5C8
100
AcDbEntity
100
AcDbLine
  8
FOREGROUND
 62
256
370
9
  6
CONTINUOUS
 10
195.9002838134765909
 20
15.8888664245605504
 30
0.0
 11
195.9706268310546875
 21
15.8888664245605504
 31
0.0
  0
LINE
  5
5C9
100
AcDbEntity
100
AcDbLine
  8
FOREGROUND
 62
256
370
9
  6
CONTINUOUS
 10
196.4980773925780966
 20
15.8888664245605504
 30
0.0
 11
196.5684051513671875
 21
15.8888664245605504
 31
0.0
  0
LINE
  5
5CA
100
AcDbEntity
100
AcDbLine
  8
FOREGROUND
 62
256
370
9
  6
CONTINUOUS
 10
197.1310119628905966
 20
15.8888664245605504
 30
0.0
 11
197.2013549804688068
 21
15.8888664245605504
 31
0.0
  0
LINE
  5
5CB
100
AcDbEntity
100
AcDbLine
  8
FOREGROUND
 62
256
370
9
  6
CONTINUOUS
 10
197.3771667480469034
 20
15.8888664245605504
 30
0.0
 11
197.4123382568359091
 21
15.8888664245605504
 31
0.0
  0
LINE
  5
5CC
100
AcDbEntity
100
AcDbLine
  8
FOREGROUND
 62
256
370
9
  6
CONTINUOUS
 10
197.6936492919921875
 20
15.8888664245605504
 30
0.0
 11
197.7287902832030966
 21
15.8888664245605504
 31
0.0
  0
LINE
  5
5CD
100
AcDbEntity
100
AcDbLine
  8
FOREGROUND
 62
256
370
9
  6
CONTINUOUS
 10
197.9749450683594034
 20
15.8888664245605504
 30
0.0
 11
198.0452728271484091
 21
15.8888664245605504
 31
0.0
  0
LINE
  5
5CE
100
AcDbEntity
100
AcDbLine
  8
FOREGROUND
 62
256
370
9
  6
CONTINUOUS
 10
198.2914276123046875
 20
15.8888664245605504
 30
0.0
 11
198.3265838623046875
 21
15.8888664245605504
 31
0.0
  0
LINE
  5
5CF
100
AcDbEntity
100
AcDbLine
  8
FOREGROUND
 62
256
370
9
  6
CONTINUOUS
 10
198.5375823974609091
 20
15.8888664245605504
 30
0.0
 11
198.6078948974609091
 21
15.8888664245605504
 31
0.0
  0
LINE
  5
5D0
100
AcDbEntity
100
AcDbLine
  8
FOREGROUND
 62
256
370
9
  6
CONTINUOUS
 10
198.8540496826171875
 20
15.8888664245605504
 30
0.0
 11
198.9595336914061932
 21
15.8888664245605504
 31
0.0
  0
LINE
  5
5D1
100
AcDbEntity
100
AcDbLine
  8
FOREGROUND
 62
256
370
9
  6
CONTINUOUS
 10
199.1001892089844034
 20
15.8888664245605504
 30
0.0
 11
199.2056732177734091
 21
15.8888664245605504
 31
0.0
  0
LINE
  5
5D2
100
AcDbEntity
100
AcDbLine
  8
FOREGROUND
 62
256
370
9
  6
CONTINUOUS
 10
199.5924987792969034
 20
15.8888664245605504
 30
0.0
 11
199.6979675292969034
 21
15.8888664245605504
 31
0.0
  0
LINE
  5
5D3
100
AcDbEntity
100
AcDbLine
  8
FOREGROUND
 62
256
370
9
  6
CONTINUOUS
 10
199.9441223144530966
 20
15.8888664245605504
 30
0.0
 11
200.0847930908203125
 21
15.8888664245605504
 31
0.0
  0
LINE
  5
5D4
100
AcDbEntity
100
AcDbLine
  8
FOREGROUND
 62
256
370
9
  6
CONTINUOUS
 10
200.3661041259765909
 20
15.8888664245605504
 30
0.0
 11
200.5419158935546875
 21
15.8888664245605504
 31
0.0
  0
LINE
  5
5D5
100
AcDbEntity
100
AcDbLine
  8
FOREGROUND
 62
256
370
9
  6
CONTINUOUS
 10
200.9638824462890909
 20
15.8888664245605504
 30
0.0
 11
201.1045227050780966
 21
15.8888664245605504
 31
0.0
  0
LINE
  5
5D6
100
AcDbEntity
100
AcDbLine
  8
FOREGROUND
 62
256
370
9
  6
CONTINUOUS
 10
201.4913330078125
 20
15.8888664245605504
 30
0.0
 11
201.5616760253905966
 21
15.8888664245605504
 31
0.0
  0
LINE
  5
5D7
100
AcDbEntity
100
AcDbLine
  8
FOREGROUND
 62
256
370
9
  6
CONTINUOUS
 10
201.7374877929688068
 20
15.8888664245605504
 30
0.0
 11
201.8078155517578125
 21
15.8888664245605504
 31
0.0
  0
LINE
  5
5D8
100
AcDbEntity
100
AcDbLine
  8
FOREGROUND
 62
256
370
9
  6
CONTINUOUS
 10
202.018798828125
 20
15.8888664245605504
 30
0.0
 11
202.124267578125
 21
15.8888664245605504
 31
0.0
  0
LINE
  5
5D9
100
AcDbEntity
100
AcDbLine
  8
FOREGROUND
 62
256
370
9
  6
CONTINUOUS
 10
202.5110931396484091
 20
15.8888664245605504
 30
0.0
 11
202.5814056396484091
 21
15.8888664245605504
 31
0.0
  0
LINE
  5
5DA
100
AcDbEntity
100
AcDbLine
  8
FOREGROUND
 62
256
370
9
  6
CONTINUOUS
 10
202.7572174072265909
 20
15.8888664245605504
 30
0.0
 11
202.8275604248046875
 21
15.8888664245605504
 31
0.0
  0
LINE
  5
5DB
100
AcDbEntity
100
AcDbLine
  8
FOREGROUND
 62
256
370
9
  6
CONTINUOUS
 10
203.1791839599609091
 20
15.8888664245605504
 30
0.0
 11
203.2495269775390909
 21
15.8888664245605504
 31
0.0
  0
LINE
  5
5DC
100
AcDbEntity
100
AcDbLine
  8
FOREGROUND
 62
256
370
9
  6
CONTINUOUS
 10
203.5660095214844034
 20
15.8888664245605504
 30
0.0
 11
203.6363220214844034
 21
15.8888664245605504
 31
0.0
  0
LINE
  5
5DD
100
AcDbEntity
100
AcDbLine
  8
FOREGROUND
 62
256
370
9
  6
CONTINUOUS
 10
203.9176330566405966
 20
15.8888664245605504
 30
0.0
 11
204.1285858154296875
 21
15.8888664245605504
 31
0.0
  0
LINE
  5
5DE
100
AcDbEntity
100
AcDbLine
  8
FOREGROUND
 62
256
370
9
  6
CONTINUOUS
 10
204.3747406005859091
 20
15.8888664245605504
 30
0.0
 11
204.409912109375
 21
15.8888664245605504
 31
0.0
  0
LINE
  5
5DF
100
AcDbEntity
100
AcDbLine
  8
FOREGROUND
 62
256
370
9
  6
CONTINUOUS
 10
204.6912231445311932
 20
15.8888664245605504
 30
0.0
 11
204.7615661621094034
 21
15.8888664245605504
 31
0.0
  0
LINE
  5
5E0
100
AcDbEntity
100
AcDbLine
  8
FOREGROUND
 62
256
370
9
  6
CONTINUOUS
 10
205.2890014648438068
 20
15.8888664245605504
 30
0.0
 11
205.4999847412109091
 21
15.8888664245605504
 31
0.0
  0
LINE
  5
5E1
100
AcDbEntity
100
AcDbLine
  8
FOREGROUND
 62
256
370
9
  6
CONTINUOUS
 10
205.7461395263671875
 20
15.8888664245605504
 30
0.0
 11
205.7812957763671875
 21
15.8888664245605504
 31
0.0
  0
LINE
  5
5E2
100
AcDbEntity
100
AcDbLine
  8
FOREGROUND
 62
256
370
9
  6
CONTINUOUS
 10
206.0626220703125
 20
15.8888664245605504
 30
0.0
 11
206.1329650878905966
 21
15.8888664245605504
 31
0.0
  0
LINE
  5
5E3
100
AcDbEntity
100
AcDbLine
  8
FOREGROUND
 62
256
370
9
  6
CONTINUOUS
 10
206.3439178466796875
 20
15.8888664245605504
 30
0.0
 11
206.4494171142578125
 21
15.8888664245605504
 31
0.0
  0
LINE
  5
5E4
100
AcDbEntity
100
AcDbLine
  8
FOREGROUND
 62
256
370
9
  6
CONTINUOUS
 10
206.8362121582030966
 20
15.8888664245605504
 30
0.0
 11
206.9768676757811932
 21
15.8888664245605504
 31
0.0
  0
LINE
  5
5E5
100
AcDbEntity
100
AcDbLine
  8
FOREGROUND
 62
256
370
9
  6
CONTINUOUS
 10
207.4339904785155966
 20
15.8888664245605504
 30
0.0
 11
207.5043487548828125
 21
15.8888664245605504
 31
0.0
  0
LINE
  5
5E6
100
AcDbEntity
100
AcDbLine
  8
FOREGROUND
 62
256
370
9
  6
CONTINUOUS
 10
207.8559722900390909
 20
15.8888664245605504
 30
0.0
 11
207.8911285400390909
 21
15.8888664245605504
 31
0.0
  0
LINE
  5
5E7
100
AcDbEntity
100
AcDbLine
  8
FOREGROUND
 62
256
370
9
  6
CONTINUOUS
 10
208.3834228515625
 20
15.8888664245605504
 30
0.0
 11
208.4889068603515909
 21
15.8888664245605504
 31
0.0
  0
LINE
  5
5E8
100
AcDbEntity
100
AcDbLine
  8
FOREGROUND
 62
256
370
9
  6
CONTINUOUS
 10
208.8405303955078125
 20
15.8888664245605504
 30
0.0
 11
208.910888671875
 21
15.8888664245605504
 31
0.0
  0
LINE
  5
5E9
100
AcDbEntity
100
AcDbLine
  8
FOREGROUND
 62
256
370
9
  6
CONTINUOUS
 10
209.1570281982421875
 20
15.8888664245605504
 30
0.0
 11
209.2976684570311932
 21
15.8888664245605504
 31
0.0
  0
LINE
  5
5EA
100
AcDbEntity
100
AcDbLine
  8
FOREGROUND
 62
256
370
9
  6
CONTINUOUS
 10
209.5789794921875
 20
15.8888664245605504
 30
0.0
 11
209.7547912597655966
 21
15.8888664245605504
 31
0.0
  0
LINE
  5
5EB
100
AcDbEntity
100
AcDbLine
  8
FOREGROUND
 62
256
370
9
  6
CONTINUOUS
 10
210.0712738037109091
 20
15.8888664245605504
 30
0.0
 11
210.1416168212890909
 21
15.8888664245605504
 31
0.0
  0
LINE
  5
5EC
100
AcDbEntity
100
AcDbLine
  8
FOREGROUND
 62
256
370
9
  6
CONTINUOUS
 10
210.3525848388671875
 20
15.8888664245605504
 30
0.0
 11
210.4580841064453125
 21
15.8888664245605504
 31
0.0
  0
LINE
  5
5ED
100
AcDbEntity
100
AcDbLine
  8
FOREGROUND
 62
256
370
9
  6
CONTINUOUS
 10
210.7393951416015909
 20
15.8888664245605504
 30
0.0
 11
210.8097076416015909
 21
15.8888664245605504
 31
0.0
  0
LINE
  5
5EE
100
AcDbEntity
100
AcDbLine
  8
FOREGROUND
 62
256
370
9
  6
CONTINUOUS
 10
211.1613616943359091
 20
15.8888664245605504
 30
0.0
 11
211.231689453125
 21
15.8888664245605504
 31
0.0
  0
LINE
  5
5EF
100
AcDbEntity
100
AcDbLine
  8
FOREGROUND
 62
256
370
9
  6
CONTINUOUS
 10
195.2673492431640909
 20
15.9237022399902308
 30
0.0
 11
195.3376922607421875
 21
15.9237022399902308
 31
0.0
  0
LINE
  5
5F0
100
AcDbEntity
100
AcDbLine
  8
FOREGROUND
 62
256
370
9
  6
CONTINUOUS
 10
195.6541442871094034
 20
15.9237022399902308
 30
0.0
 11
195.6893157958984091
 21
15.9237022399902308
 31
0.0
  0
LINE
  5
5F1
100
AcDbEntity
100
AcDbLine
  8
FOREGROUND
 62
256
370
9
  6
CONTINUOUS
 10
195.9002838134765909
 20
15.9237022399902308
 30
0.0
 11
195.9706268310546875
 21
15.9237022399902308
 31
0.0
  0
LINE
  5
5F2
100
AcDbEntity
100
AcDbLine
  8
FOREGROUND
 62
256
370
9
  6
CONTINUOUS
 10
196.4980773925780966
 20
15.9237022399902308
 30
0.0
 11
196.5684051513671875
 21
15.9237022399902308
 31
0.0
  0
LINE
  5
5F3
100
AcDbEntity
100
AcDbLine
  8
FOREGROUND
 62
256
370
9
  6
CONTINUOUS
 10
196.8848876953125
 20
15.9237022399902308
 30
0.0
 11
196.9200439453125
 21
15.9237022399902308
 31
0.0
  0
LINE
  5
5F4
100
AcDbEntity
100
AcDbLine
  8
FOREGROUND
 62
256
370
9
  6
CONTINUOUS
 10
197.1310119628905966
 20
15.9237022399902308
 30
0.0
 11
197.2013549804688068
 21
15.9237022399902308
 31
0.0
  0
LINE
  5
5F5
100
AcDbEntity
100
AcDbLine
  8
FOREGROUND
 62
256
370
9
  6
CONTINUOUS
 10
197.4123382568359091
 20
15.9237022399902308
 30
0.0
 11
197.482666015625
 21
15.9237022399902308
 31
0.0
  0
LINE
  5
5F6
100
AcDbEntity
100
AcDbLine
  8
FOREGROUND
 62
256
370
9
  6
CONTINUOUS
 10
197.6936492919921875
 20
15.9237022399902308
 30
0.0
 11
197.7287902832030966
 21
15.9237022399902308
 31
0.0
  0
LINE
  5
5F7
100
AcDbEntity
100
AcDbLine
  8
FOREGROUND
 62
256
370
9
  6
CONTINUOUS
 10
197.9749450683594034
 20
15.9237022399902308
 30
0.0
 11
198.0452728271484091
 21
15.9237022399902308
 31
0.0
  0
LINE
  5
5F8
100
AcDbEntity
100
AcDbLine
  8
FOREGROUND
 62
256
370
9
  6
CONTINUOUS
 10
198.2914276123046875
 20
15.9237022399902308
 30
0.0
 11
198.3617401123046875
 21
15.9237022399902308
 31
0.0
  0
LINE
  5
5F9
100
AcDbEntity
100
AcDbLine
  8
FOREGROUND
 62
256
370
9
  6
CONTINUOUS
 10
198.5375823974609091
 20
15.9237022399902308
 30
0.0
 11
198.6078948974609091
 21
15.9237022399902308
 31
0.0
  0
LINE
  5
5FA
100
AcDbEntity
100
AcDbLine
  8
FOREGROUND
 62
256
370
9
  6
CONTINUOUS
 10
198.8540496826171875
 20
15.9237022399902308
 30
0.0
 11
198.9595336914061932
 21
15.9237022399902308
 31
0.0
  0
LINE
  5
5FB
100
AcDbEntity
100
AcDbLine
  8
FOREGROUND
 62
256
370
9
  6
CONTINUOUS
 10
199.1353759765625
 20
15.9237022399902308
 30
0.0
 11
199.2408447265625
 21
15.9237022399902308
 31
0.0
  0
LINE
  5
5FC
100
AcDbEntity
100
AcDbLine
  8
FOREGROUND
 62
256
370
9
  6
CONTINUOUS
 10
199.5924987792969034
 20
15.9237022399902308
 30
0.0
 11
199.6979675292969034
 21
15.9237022399902308
 31
0.0
  0
LINE
  5
5FD
100
AcDbEntity
100
AcDbLine
  8
FOREGROUND
 62
256
370
9
  6
CONTINUOUS
 10
199.9441223144530966
 20
15.9237022399902308
 30
0.0
 11
200.0847930908203125
 21
15.9237022399902308
 31
0.0
  0
LINE
  5
5FE
100
AcDbEntity
100
AcDbLine
  8
FOREGROUND
 62
256
370
9
  6
CONTINUOUS
 10
200.4012603759765909
 20
15.9237022399902308
 30
0.0
 11
200.5419158935546875
 21
15.9237022399902308
 31
0.0
  0
LINE
  5
5FF
100
AcDbEntity
100
AcDbLine
  8
FOREGROUND
 62
256
370
9
  6
CONTINUOUS
 10
200.9638824462890909
 20
15.9237022399902308
 30
0.0
 11
201.1045227050780966
 21
15.9237022399902308
 31
0.0
  0
LINE
  5
600
100
AcDbEntity
100
AcDbLine
  8
FOREGROUND
 62
256
370
9
  6
CONTINUOUS
 10
201.4913330078125
 20
15.9237022399902308
 30
0.0
 11
201.5616760253905966
 21
15.9237022399902308
 31
0.0
  0
LINE
  5
601
100
AcDbEntity
100
AcDbLine
  8
FOREGROUND
 62
256
370
9
  6
CONTINUOUS
 10
201.7374877929688068
 20
15.9237022399902308
 30
0.0
 11
201.8078155517578125
 21
15.9237022399902308
 31
0.0
  0
LINE
  5
602
100
AcDbEntity
100
AcDbLine
  8
FOREGROUND
 62
256
370
9
  6
CONTINUOUS
 10
202.0539703369140909
 20
15.9237022399902308
 30
0.0
 11
202.1594543457030966
 21
15.9237022399902308
 31
0.0
  0
LINE
  5
603
100
AcDbEntity
100
AcDbLine
  8
FOREGROUND
 62
256
370
9
  6
CONTINUOUS
 10
202.5110931396484091
 20
15.9237022399902308
 30
0.0
 11
202.5814056396484091
 21
15.9237022399902308
 31
0.0
  0
LINE
  5
604
100
AcDbEntity
100
AcDbLine
  8
FOREGROUND
 62
256
370
9
  6
CONTINUOUS
 10
202.7572174072265909
 20
15.9237022399902308
 30
0.0
 11
202.8275604248046875
 21
15.9237022399902308
 31
0.0
  0
LINE
  5
605
100
AcDbEntity
100
AcDbLine
  8
FOREGROUND
 62
256
370
9
  6
CONTINUOUS
 10
203.1791839599609091
 20
15.9237022399902308
 30
0.0
 11
203.2495269775390909
 21
15.9237022399902308
 31
0.0
  0
LINE
  5
606
100
AcDbEntity
100
AcDbLine
  8
FOREGROUND
 62
256
370
9
  6
CONTINUOUS
 10
203.5660095214844034
 20
15.9237022399902308
 30
0.0
 11
203.6363220214844034
 21
15.9237022399902308
 31
0.0
  0
LINE
  5
607
100
AcDbEntity
100
AcDbLine
  8
FOREGROUND
 62
256
370
9
  6
CONTINUOUS
 10
203.9176330566405966
 20
15.9237022399902308
 30
0.0
 11
204.0934448242188068
 21
15.9237022399902308
 31
0.0
  0
LINE
  5
608
100
AcDbEntity
100
AcDbLine
  8
FOREGROUND
 62
256
370
9
  6
CONTINUOUS
 10
204.3747406005859091
 20
15.9237022399902308
 30
0.0
 11
204.409912109375
 21
15.9237022399902308
 31
0.0
  0
LINE
  5
609
100
AcDbEntity
100
AcDbLine
  8
FOREGROUND
 62
256
370
9
  6
CONTINUOUS
 10
204.6912231445311932
 20
15.9237022399902308
 30
0.0
 11
204.7615661621094034
 21
15.9237022399902308
 31
0.0
  0
LINE
  5
60A
100
AcDbEntity
100
AcDbLine
  8
FOREGROUND
 62
256
370
9
  6
CONTINUOUS
 10
205.0780487060546875
 20
15.9237022399902308
 30
0.0
 11
205.1131896972655966
 21
15.9237022399902308
 31
0.0
  0
LINE
  5
60B
100
AcDbEntity
100
AcDbLine
  8
FOREGROUND
 62
256
370
9
  6
CONTINUOUS
 10
205.2890014648438068
 20
15.9237022399902308
 30
0.0
 11
205.4648284912109091
 21
15.9237022399902308
 31
0.0
  0
LINE
  5
60C
100
AcDbEntity
100
AcDbLine
  8
FOREGROUND
 62
256
370
9
  6
CONTINUOUS
 10
205.7461395263671875
 20
15.9237022399902308
 30
0.0
 11
205.7812957763671875
 21
15.9237022399902308
 31
0.0
  0
LINE
  5
60D
100
AcDbEntity
100
AcDbLine
  8
FOREGROUND
 62
256
370
9
  6
CONTINUOUS
 10
206.0626220703125
 20
15.9237022399902308
 30
0.0
 11
206.1329650878905966
 21
15.9237022399902308
 31
0.0
  0
LINE
  5
60E
100
AcDbEntity
100
AcDbLine
  8
FOREGROUND
 62
256
370
9
  6
CONTINUOUS
 10
206.3439178466796875
 20
15.9237022399902308
 30
0.0
 11
206.4494171142578125
 21
15.9237022399902308
 31
0.0
  0
LINE
  5
60F
100
AcDbEntity
100
AcDbLine
  8
FOREGROUND
 62
256
370
9
  6
CONTINUOUS
 10
206.8362121582030966
 20
15.9237022399902308
 30
0.0
 11
206.9768676757811932
 21
15.9237022399902308
 31
0.0
  0
LINE
  5
610
100
AcDbEntity
100
AcDbLine
  8
FOREGROUND
 62
256
370
9
  6
CONTINUOUS
 10
207.4339904785155966
 20
15.9237022399902308
 30
0.0
 11
207.5043487548828125
 21
15.9237022399902308
 31
0.0
  0
LINE
  5
611
100
AcDbEntity
100
AcDbLine
  8
FOREGROUND
 62
256
370
9
  6
CONTINUOUS
 10
207.8559722900390909
 20
15.9237022399902308
 30
0.0
 11
207.8911285400390909
 21
15.9237022399902308
 31
0.0
  0
LINE
  5
612
100
AcDbEntity
100
AcDbLine
  8
FOREGROUND
 62
256
370
9
  6
CONTINUOUS
 10
208.4185943603515909
 20
15.9237022399902308
 30
0.0
 11
208.5240631103515909
 21
15.9237022399902308
 31
0.0
  0
LINE
  5
613
100
AcDbEntity
100
AcDbLine
  8
FOREGROUND
 62
256
370
9
  6
CONTINUOUS
 10
208.8405303955078125
 20
15.9237022399902308
 30
0.0
 11
208.910888671875
 21
15.9237022399902308
 31
0.0
  0
LINE
  5
614
100
AcDbEntity
100
AcDbLine
  8
FOREGROUND
 62
256
370
9
  6
CONTINUOUS
 10
209.1570281982421875
 20
15.9237022399902308
 30
0.0
 11
209.2976684570311932
 21
15.9237022399902308
 31
0.0
  0
LINE
  5
615
100
AcDbEntity
100
AcDbLine
  8
FOREGROUND
 62
256
370
9
  6
CONTINUOUS
 10
209.6141815185546875
 20
15.9237022399902308
 30
0.0
 11
209.7547912597655966
 21
15.9237022399902308
 31
0.0
  0
LINE
  5
616
100
AcDbEntity
100
AcDbLine
  8
FOREGROUND
 62
256
370
9
  6
CONTINUOUS
 10
210.0712738037109091
 20
15.9237022399902308
 30
0.0
 11
210.1416168212890909
 21
15.9237022399902308
 31
0.0
  0
LINE
  5
617
100
AcDbEntity
100
AcDbLine
  8
FOREGROUND
 62
256
370
9
  6
CONTINUOUS
 10
210.3525848388671875
 20
15.9237022399902308
 30
0.0
 11
210.4580841064453125
 21
15.9237022399902308
 31
0.0
  0
LINE
  5
618
100
AcDbEntity
100
AcDbLine
  8
FOREGROUND
 62
256
370
9
  6
CONTINUOUS
 10
210.7393951416015909
 20
15.9237022399902308
 30
0.0
 11
210.8097076416015909
 21
15.9237022399902308
 31
0.0
  0
LINE
  5
619
100
AcDbEntity
100
AcDbLine
  8
FOREGROUND
 62
256
370
9
  6
CONTINUOUS
 10
211.1613616943359091
 20
15.9237022399902308
 30
0.0
 11
211.231689453125
 21
15.9237022399902308
 31
0.0
  0
LINE
  5
61A
100
AcDbEntity
100
AcDbLine
  8
FOREGROUND
 62
256
370
9
  6
CONTINUOUS
 10
195.2673492431640909
 20
15.9585456848144496
 30
0.0
 11
195.3376922607421875
 21
15.9585456848144496
 31
0.0
  0
LINE
  5
61B
100
AcDbEntity
100
AcDbLine
  8
FOREGROUND
 62
256
370
9
  6
CONTINUOUS
 10
195.6189727783203125
 20
15.9585456848144496
 30
0.0
 11
195.6893157958984091
 21
15.9585456848144496
 31
0.0
  0
LINE
  5
61C
100
AcDbEntity
100
AcDbLine
  8
FOREGROUND
 62
256
370
9
  6
CONTINUOUS
 10
195.9002838134765909
 20
15.9585456848144496
 30
0.0
 11
195.9706268310546875
 21
15.9585456848144496
 31
0.0
  0
LINE
  5
61D
100
AcDbEntity
100
AcDbLine
  8
FOREGROUND
 62
256
370
9
  6
CONTINUOUS
 10
196.4980773925780966
 20
15.9585456848144496
 30
0.0
 11
196.5684051513671875
 21
15.9585456848144496
 31
0.0
  0
LINE
  5
61E
100
AcDbEntity
100
AcDbLine
  8
FOREGROUND
 62
256
370
9
  6
CONTINUOUS
 10
196.8497314453125
 20
15.9585456848144496
 30
0.0
 11
196.9200439453125
 21
15.9585456848144496
 31
0.0
  0
LINE
  5
61F
100
AcDbEntity
100
AcDbLine
  8
FOREGROUND
 62
256
370
9
  6
CONTINUOUS
 10
197.1310119628905966
 20
15.9585456848144496
 30
0.0
 11
197.2365264892578125
 21
15.9585456848144496
 31
0.0
  0
LINE
  5
620
100
AcDbEntity
100
AcDbLine
  8
FOREGROUND
 62
256
370
9
  6
CONTINUOUS
 10
197.482666015625
 20
15.9585456848144496
 30
0.0
 11
197.5178375244140909
 21
15.9585456848144496
 31
0.0
  0
LINE
  5
621
100
AcDbEntity
100
AcDbLine
  8
FOREGROUND
 62
256
370
9
  6
CONTINUOUS
 10
197.7287902832030966
 20
15.9585456848144496
 30
0.0
 11
197.7639923095703125
 21
15.9585456848144496
 31
0.0
  0
LINE
  5
622
100
AcDbEntity
100
AcDbLine
  8
FOREGROUND
 62
256
370
9
  6
CONTINUOUS
 10
197.9749450683594034
 20
15.9585456848144496
 30
0.0
 11
198.0452728271484091
 21
15.9585456848144496
 31
0.0
  0
LINE
  5
623
100
AcDbEntity
100
AcDbLine
  8
FOREGROUND
 62
256
370
9
  6
CONTINUOUS
 10
198.2914276123046875
 20
15.9585456848144496
 30
0.0
 11
198.3617401123046875
 21
15.9585456848144496
 31
0.0
  0
LINE
  5
624
100
AcDbEntity
100
AcDbLine
  8
FOREGROUND
 62
256
370
9
  6
CONTINUOUS
 10
198.5375823974609091
 20
15.9585456848144496
 30
0.0
 11
198.6078948974609091
 21
15.9585456848144496
 31
0.0
  0
LINE
  5
625
100
AcDbEntity
100
AcDbLine
  8
FOREGROUND
 62
256
370
9
  6
CONTINUOUS
 10
198.8189086914061932
 20
15.9585456848144496
 30
0.0
 11
198.9595336914061932
 21
15.9585456848144496
 31
0.0
  0
LINE
  5
626
100
AcDbEntity
100
AcDbLine
  8
FOREGROUND
 62
256
370
9
  6
CONTINUOUS
 10
199.2056732177734091
 20
15.9585456848144496
 30
0.0
 11
199.2760162353515909
 21
15.9585456848144496
 31
0.0
  0
LINE
  5
627
100
AcDbEntity
100
AcDbLine
  8
FOREGROUND
 62
256
370
9
  6
CONTINUOUS
 10
199.5924987792969034
 20
15.9585456848144496
 30
0.0
 11
199.6628265380859091
 21
15.9585456848144496
 31
0.0
  0
LINE
  5
628
100
AcDbEntity
100
AcDbLine
  8
FOREGROUND
 62
256
370
9
  6
CONTINUOUS
 10
199.9441223144530966
 20
15.9585456848144496
 30
0.0
 11
200.0847930908203125
 21
15.9585456848144496
 31
0.0
  0
LINE
  5
629
100
AcDbEntity
100
AcDbLine
  8
FOREGROUND
 62
256
370
9
  6
CONTINUOUS
 10
200.4364166259765909
 20
15.9585456848144496
 30
0.0
 11
200.5419158935546875
 21
15.9585456848144496
 31
0.0
  0
LINE
  5
62A
100
AcDbEntity
100
AcDbLine
  8
FOREGROUND
 62
256
370
9
  6
CONTINUOUS
 10
200.9990386962890909
 20
15.9585456848144496
 30
0.0
 11
201.1045227050780966
 21
15.9585456848144496
 31
0.0
  0
LINE
  5
62B
100
AcDbEntity
100
AcDbLine
  8
FOREGROUND
 62
256
370
9
  6
CONTINUOUS
 10
201.5264739990234091
 20
15.9585456848144496
 30
0.0
 11
201.5968322753905966
 21
15.9585456848144496
 31
0.0
  0
LINE
  5
62C
100
AcDbEntity
100
AcDbLine
  8
FOREGROUND
 62
256
370
9
  6
CONTINUOUS
 10
201.7374877929688068
 20
15.9585456848144496
 30
0.0
 11
201.8078155517578125
 21
15.9585456848144496
 31
0.0
  0
LINE
  5
62D
100
AcDbEntity
100
AcDbLine
  8
FOREGROUND
 62
256
370
9
  6
CONTINUOUS
 10
202.089111328125
 20
15.9585456848144496
 30
0.0
 11
202.1946105957030966
 21
15.9585456848144496
 31
0.0
  0
LINE
  5
62E
100
AcDbEntity
100
AcDbLine
  8
FOREGROUND
 62
256
370
9
  6
CONTINUOUS
 10
202.4759368896484091
 20
15.9585456848144496
 30
0.0
 11
202.5814056396484091
 21
15.9585456848144496
 31
0.0
  0
LINE
  5
62F
100
AcDbEntity
100
AcDbLine
  8
FOREGROUND
 62
256
370
9
  6
CONTINUOUS
 10
202.7572174072265909
 20
15.9585456848144496
 30
0.0
 11
202.8275604248046875
 21
15.9585456848144496
 31
0.0
  0
LINE
  5
630
100
AcDbEntity
100
AcDbLine
  8
FOREGROUND
 62
256
370
9
  6
CONTINUOUS
 10
203.1791839599609091
 20
15.9585456848144496
 30
0.0
 11
203.2495269775390909
 21
15.9585456848144496
 31
0.0
  0
LINE
  5
631
100
AcDbEntity
100
AcDbLine
  8
FOREGROUND
 62
256
370
9
  6
CONTINUOUS
 10
203.5660095214844034
 20
15.9585456848144496
 30
0.0
 11
203.6363220214844034
 21
15.9585456848144496
 31
0.0
  0
LINE
  5
632
100
AcDbEntity
100
AcDbLine
  8
FOREGROUND
 62
256
370
9
  6
CONTINUOUS
 10
203.9176330566405966
 20
15.9585456848144496
 30
0.0
 11
204.0934448242188068
 21
15.9585456848144496
 31
0.0
  0
LINE
  5
633
100
AcDbEntity
100
AcDbLine
  8
FOREGROUND
 62
256
370
9
  6
CONTINUOUS
 10
204.3747406005859091
 20
15.9585456848144496
 30
0.0
 11
204.409912109375
 21
15.9585456848144496
 31
0.0
  0
LINE
  5
634
100
AcDbEntity
100
AcDbLine
  8
FOREGROUND
 62
256
370
9
  6
CONTINUOUS
 10
204.6912231445311932
 20
15.9585456848144496
 30
0.0
 11
204.7615661621094034
 21
15.9585456848144496
 31
0.0
  0
LINE
  5
635
100
AcDbEntity
100
AcDbLine
  8
FOREGROUND
 62
256
370
9
  6
CONTINUOUS
 10
205.0428466796875
 20
15.9585456848144496
 30
0.0
 11
205.1131896972655966
 21
15.9585456848144496
 31
0.0
  0
LINE
  5
636
100
AcDbEntity
100
AcDbLine
  8
FOREGROUND
 62
256
370
9
  6
CONTINUOUS
 10
205.2890014648438068
 20
15.9585456848144496
 30
0.0
 11
205.4648284912109091
 21
15.9585456848144496
 31
0.0
  0
LINE
  5
637
100
AcDbEntity
100
AcDbLine
  8
FOREGROUND
 62
256
370
9
  6
CONTINUOUS
 10
205.7461395263671875
 20
15.9585456848144496
 30
0.0
 11
205.7812957763671875
 21
15.9585456848144496
 31
0.0
  0
LINE
  5
638
100
AcDbEntity
100
AcDbLine
  8
FOREGROUND
 62
256
370
9
  6
CONTINUOUS
 10
206.0626220703125
 20
15.9585456848144496
 30
0.0
 11
206.1329650878905966
 21
15.9585456848144496
 31
0.0
  0
LINE
  5
639
100
AcDbEntity
100
AcDbLine
  8
FOREGROUND
 62
256
370
9
  6
CONTINUOUS
 10
206.3439178466796875
 20
15.9585456848144496
 30
0.0
 11
206.4494171142578125
 21
15.9585456848144496
 31
0.0
  0
LINE
  5
63A
100
AcDbEntity
100
AcDbLine
  8
FOREGROUND
 62
256
370
9
  6
CONTINUOUS
 10
206.8713531494140909
 20
15.9585456848144496
 30
0.0
 11
206.9768676757811932
 21
15.9585456848144496
 31
0.0
  0
LINE
  5
63B
100
AcDbEntity
100
AcDbLine
  8
FOREGROUND
 62
256
370
9
  6
CONTINUOUS
 10
207.4339904785155966
 20
15.9585456848144496
 30
0.0
 11
207.5043487548828125
 21
15.9585456848144496
 31
0.0
  0
LINE
  5
63C
100
AcDbEntity
100
AcDbLine
  8
FOREGROUND
 62
256
370
9
  6
CONTINUOUS
 10
207.8559722900390909
 20
15.9585456848144496
 30
0.0
 11
207.8911285400390909
 21
15.9585456848144496
 31
0.0
  0
LINE
  5
63D
100
AcDbEntity
100
AcDbLine
  8
FOREGROUND
 62
256
370
9
  6
CONTINUOUS
 10
208.4537658691405966
 20
15.9585456848144496
 30
0.0
 11
208.5592346191405966
 21
15.9585456848144496
 31
0.0
  0
LINE
  5
63E
100
AcDbEntity
100
AcDbLine
  8
FOREGROUND
 62
256
370
9
  6
CONTINUOUS
 10
208.8053894042969034
 20
15.9585456848144496
 30
0.0
 11
208.910888671875
 21
15.9585456848144496
 31
0.0
  0
LINE
  5
63F
100
AcDbEntity
100
AcDbLine
  8
FOREGROUND
 62
256
370
9
  6
CONTINUOUS
 10
209.1570281982421875
 20
15.9585456848144496
 30
0.0
 11
209.2976684570311932
 21
15.9585456848144496
 31
0.0
  0
LINE
  5
640
100
AcDbEntity
100
AcDbLine
  8
FOREGROUND
 62
256
370
9
  6
CONTINUOUS
 10
209.6493225097655966
 20
15.9585456848144496
 30
0.0
 11
209.7547912597655966
 21
15.9585456848144496
 31
0.0
  0
LINE
  5
641
100
AcDbEntity
100
AcDbLine
  8
FOREGROUND
 62
256
370
9
  6
CONTINUOUS
 10
210.0712738037109091
 20
15.9585456848144496
 30
0.0
 11
210.1416168212890909
 21
15.9585456848144496
 31
0.0
  0
LINE
  5
642
100
AcDbEntity
100
AcDbLine
  8
FOREGROUND
 62
256
370
9
  6
CONTINUOUS
 10
210.3525848388671875
 20
15.9585456848144496
 30
0.0
 11
210.4580841064453125
 21
15.9585456848144496
 31
0.0
  0
LINE
  5
643
100
AcDbEntity
100
AcDbLine
  8
FOREGROUND
 62
256
370
9
  6
CONTINUOUS
 10
210.7393951416015909
 20
15.9585456848144496
 30
0.0
 11
210.8097076416015909
 21
15.9585456848144496
 31
0.0
  0
LINE
  5
644
100
AcDbEntity
100
AcDbLine
  8
FOREGROUND
 62
256
370
9
  6
CONTINUOUS
 10
211.1613616943359091
 20
15.9585456848144496
 30
0.0
 11
211.231689453125
 21
15.9585456848144496
 31
0.0
  0
LINE
  5
645
100
AcDbEntity
100
AcDbLine
  8
FOREGROUND
 62
256
370
9
  6
CONTINUOUS
 10
195.2673492431640909
 20
15.9933853149414098
 30
0.0
 11
195.3728485107421875
 21
15.9933853149414098
 31
0.0
  0
LINE
  5
646
100
AcDbEntity
100
AcDbLine
  8
FOREGROUND
 62
256
370
9
  6
CONTINUOUS
 10
195.5838165283203125
 20
15.9933853149414098
 30
0.0
 11
195.6893157958984091
 21
15.9933853149414098
 31
0.0
  0
LINE
  5
647
100
AcDbEntity
100
AcDbLine
  8
FOREGROUND
 62
256
370
9
  6
CONTINUOUS
 10
195.9002838134765909
 20
15.9933853149414098
 30
0.0
 11
196.0409393310546875
 21
15.9933853149414098
 31
0.0
  0
LINE
  5
648
100
AcDbEntity
100
AcDbLine
  8
FOREGROUND
 62
256
370
9
  6
CONTINUOUS
 10
196.4980773925780966
 20
15.9933853149414098
 30
0.0
 11
196.6035766601561932
 21
15.9933853149414098
 31
0.0
  0
LINE
  5
649
100
AcDbEntity
100
AcDbLine
  8
FOREGROUND
 62
256
370
9
  6
CONTINUOUS
 10
196.8145294189453125
 20
15.9933853149414098
 30
0.0
 11
196.9200439453125
 21
15.9933853149414098
 31
0.0
  0
LINE
  5
64A
100
AcDbEntity
100
AcDbLine
  8
FOREGROUND
 62
256
370
9
  6
CONTINUOUS
 10
197.1310119628905966
 20
15.9933853149414098
 30
0.0
 11
197.2716674804688068
 21
15.9933853149414098
 31
0.0
  0
LINE
  5
64B
100
AcDbEntity
100
AcDbLine
  8
FOREGROUND
 62
256
370
9
  6
CONTINUOUS
 10
197.482666015625
 20
15.9933853149414098
 30
0.0
 11
197.552978515625
 21
15.9933853149414098
 31
0.0
  0
LINE
  5
64C
100
AcDbEntity
100
AcDbLine
  8
FOREGROUND
 62
256
370
9
  6
CONTINUOUS
 10
197.7287902832030966
 20
15.9933853149414098
 30
0.0
 11
197.8343048095703125
 21
15.9933853149414098
 31
0.0
  0
LINE
  5
64D
100
AcDbEntity
100
AcDbLine
  8
FOREGROUND
 62
256
370
9
  6
CONTINUOUS
 10
198.0101165771484091
 20
15.9933853149414098
 30
0.0
 11
198.0804595947265909
 21
15.9933853149414098
 31
0.0
  0
LINE
  5
64E
100
AcDbEntity
100
AcDbLine
  8
FOREGROUND
 62
256
370
9
  6
CONTINUOUS
 10
198.2562713623046875
 20
15.9933853149414098
 30
0.0
 11
198.3617401123046875
 21
15.9933853149414098
 31
0.0
  0
LINE
  5
64F
100
AcDbEntity
100
AcDbLine
  8
FOREGROUND
 62
256
370
9
  6
CONTINUOUS
 10
198.5375823974609091
 20
15.9933853149414098
 30
0.0
 11
198.6430511474609091
 21
15.9933853149414098
 31
0.0
  0
LINE
  5
650
100
AcDbEntity
100
AcDbLine
  8
FOREGROUND
 62
256
370
9
  6
CONTINUOUS
 10
198.7837066650390909
 20
15.9933853149414098
 30
0.0
 11
198.9243774414061932
 21
15.9933853149414098
 31
0.0
  0
LINE
  5
651
100
AcDbEntity
100
AcDbLine
  8
FOREGROUND
 62
256
370
9
  6
CONTINUOUS
 10
199.2408447265625
 20
15.9933853149414098
 30
0.0
 11
199.3463439941405966
 21
15.9933853149414098
 31
0.0
  0
LINE
  5
652
100
AcDbEntity
100
AcDbLine
  8
FOREGROUND
 62
256
370
9
  6
CONTINUOUS
 10
199.5221557617188068
 20
15.9933853149414098
 30
0.0
 11
199.6276550292969034
 21
15.9933853149414098
 31
0.0
  0
LINE
  5
653
100
AcDbEntity
100
AcDbLine
  8
FOREGROUND
 62
256
370
9
  6
CONTINUOUS
 10
199.9441223144530966
 20
15.9933853149414098
 30
0.0
 11
200.0847930908203125
 21
15.9933853149414098
 31
0.0
  0
LINE
  5
654
100
AcDbEntity
100
AcDbLine
  8
FOREGROUND
 62
256
370
9
  6
CONTINUOUS
 10
200.4364166259765909
 20
15.9933853149414098
 30
0.0
 11
200.6122283935546875
 21
15.9933853149414098
 31
0.0
  0
LINE
  5
655
100
AcDbEntity
100
AcDbLine
  8
FOREGROUND
 62
256
370
9
  6
CONTINUOUS
 10
201.0341949462890909
 20
15.9933853149414098
 30
0.0
 11
201.1045227050780966
 21
15.9933853149414098
 31
0.0
  0
LINE
  5
656
100
AcDbEntity
100
AcDbLine
  8
FOREGROUND
 62
256
370
9
  6
CONTINUOUS
 10
201.5616760253905966
 20
15.9933853149414098
 30
0.0
 11
201.6319732666015909
 21
15.9933853149414098
 31
0.0
  0
LINE
  5
657
100
AcDbEntity
100
AcDbLine
  8
FOREGROUND
 62
256
370
9
  6
CONTINUOUS
 10
201.7374877929688068
 20
15.9933853149414098
 30
0.0
 11
201.8429565429688068
 21
15.9933853149414098
 31
0.0
  0
LINE
  5
658
100
AcDbEntity
100
AcDbLine
  8
FOREGROUND
 62
256
370
9
  6
CONTINUOUS
 10
202.1594543457030966
 20
15.9933853149414098
 30
0.0
 11
202.2649230957030966
 21
15.9933853149414098
 31
0.0
  0
LINE
  5
659
100
AcDbEntity
100
AcDbLine
  8
FOREGROUND
 62
256
370
9
  6
CONTINUOUS
 10
202.4407348632811932
 20
15.9933853149414098
 30
0.0
 11
202.6165466308594034
 21
15.9933853149414098
 31
0.0
  0
LINE
  5
65A
100
AcDbEntity
100
AcDbLine
  8
FOREGROUND
 62
256
370
9
  6
CONTINUOUS
 10
202.7572174072265909
 20
15.9933853149414098
 30
0.0
 11
202.8978729248046875
 21
15.9933853149414098
 31
0.0
  0
LINE
  5
65B
100
AcDbEntity
100
AcDbLine
  8
FOREGROUND
 62
256
370
9
  6
CONTINUOUS
 10
203.1791839599609091
 20
15.9933853149414098
 30
0.0
 11
203.3198394775390909
 21
15.9933853149414098
 31
0.0
  0
LINE
  5
65C
100
AcDbEntity
100
AcDbLine
  8
FOREGROUND
 62
256
370
9
  6
CONTINUOUS
 10
203.5660095214844034
 20
15.9933853149414098
 30
0.0
 11
203.7066497802734091
 21
15.9933853149414098
 31
0.0
  0
LINE
  5
65D
100
AcDbEntity
100
AcDbLine
  8
FOREGROUND
 62
256
370
9
  6
CONTINUOUS
 10
203.9176330566405966
 20
15.9933853149414098
 30
0.0
 11
204.0582885742188068
 21
15.9933853149414098
 31
0.0
  0
LINE
  5
65E
100
AcDbEntity
100
AcDbLine
  8
FOREGROUND
 62
256
370
9
  6
CONTINUOUS
 10
204.3747406005859091
 20
15.9933853149414098
 30
0.0
 11
204.4802703857421875
 21
15.9933853149414098
 31
0.0
  0
LINE
  5
65F
100
AcDbEntity
100
AcDbLine
  8
FOREGROUND
 62
256
370
9
  6
CONTINUOUS
 10
204.6912231445311932
 20
15.9933853149414098
 30
0.0
 11
204.7967376708984091
 21
15.9933853149414098
 31
0.0
  0
LINE
  5
660
100
AcDbEntity
100
AcDbLine
  8
FOREGROUND
 62
256
370
9
  6
CONTINUOUS
 10
205.0077056884765909
 20
15.9933853149414098
 30
0.0
 11
205.1131896972655966
 21
15.9933853149414098
 31
0.0
  0
LINE
  5
661
100
AcDbEntity
100
AcDbLine
  8
FOREGROUND
 62
256
370
9
  6
CONTINUOUS
 10
205.2890014648438068
 20
15.9933853149414098
 30
0.0
 11
205.4296722412109091
 21
15.9933853149414098
 31
0.0
  0
LINE
  5
662
100
AcDbEntity
100
AcDbLine
  8
FOREGROUND
 62
256
370
9
  6
CONTINUOUS
 10
205.7461395263671875
 20
15.9933853149414098
 30
0.0
 11
205.8516387939453125
 21
15.9933853149414098
 31
0.0
  0
LINE
  5
663
100
AcDbEntity
100
AcDbLine
  8
FOREGROUND
 62
256
370
9
  6
CONTINUOUS
 10
206.0626220703125
 20
15.9933853149414098
 30
0.0
 11
206.1681060791015909
 21
15.9933853149414098
 31
0.0
  0
LINE
  5
664
100
AcDbEntity
100
AcDbLine
  8
FOREGROUND
 62
256
370
9
  6
CONTINUOUS
 10
206.3087768554688068
 20
15.9933853149414098
 30
0.0
 11
206.4494171142578125
 21
15.9933853149414098
 31
0.0
  0
LINE
  5
665
100
AcDbEntity
100
AcDbLine
  8
FOREGROUND
 62
256
370
9
  6
CONTINUOUS
 10
206.9065551757811932
 20
15.9933853149414098
 30
0.0
 11
206.9768676757811932
 21
15.9933853149414098
 31
0.0
  0
LINE
  5
666
100
AcDbEntity
100
AcDbLine
  8
FOREGROUND
 62
256
370
9
  6
CONTINUOUS
 10
207.4339904785155966
 20
15.9933853149414098
 30
0.0
 11
207.5746612548828125
 21
15.9933853149414098
 31
0.0
  0
LINE
  5
667
100
AcDbEntity
100
AcDbLine
  8
FOREGROUND
 62
256
370
9
  6
CONTINUOUS
 10
207.8559722900390909
 20
15.9933853149414098
 30
0.0
 11
207.9614715576171875
 21
15.9933853149414098
 31
0.0
  0
LINE
  5
668
100
AcDbEntity
100
AcDbLine
  8
FOREGROUND
 62
256
370
9
  6
CONTINUOUS
 10
208.5240631103515909
 20
15.9933853149414098
 30
0.0
 11
208.6295776367188068
 21
15.9933853149414098
 31
0.0
  0
LINE
  5
669
100
AcDbEntity
100
AcDbLine
  8
FOREGROUND
 62
256
370
9
  6
CONTINUOUS
 10
208.7702178955078125
 20
15.9933853149414098
 30
0.0
 11
208.9460296630859091
 21
15.9933853149414098
 31
0.0
  0
LINE
  5
66A
100
AcDbEntity
100
AcDbLine
  8
FOREGROUND
 62
256
370
9
  6
CONTINUOUS
 10
209.1570281982421875
 20
15.9933853149414098
 30
0.0
 11
209.2976684570311932
 21
15.9933853149414098
 31
0.0
  0
LINE
  5
66B
100
AcDbEntity
100
AcDbLine
  8
FOREGROUND
 62
256
370
9
  6
CONTINUOUS
 10
209.6493225097655966
 20
15.9933853149414098
 30
0.0
 11
209.8251342773438068
 21
15.9933853149414098
 31
0.0
  0
LINE
  5
66C
100
AcDbEntity
100
AcDbLine
  8
FOREGROUND
 62
256
370
9
  6
CONTINUOUS
 10
210.0712738037109091
 20
15.9933853149414098
 30
0.0
 11
210.1767730712890909
 21
15.9933853149414098
 31
0.0
  0
LINE
  5
66D
100
AcDbEntity
100
AcDbLine
  8
FOREGROUND
 62
256
370
9
  6
CONTINUOUS
 10
210.3174285888671875
 20
15.9933853149414098
 30
0.0
 11
210.4580841064453125
 21
15.9933853149414098
 31
0.0
  0
LINE
  5
66E
100
AcDbEntity
100
AcDbLine
  8
FOREGROUND
 62
256
370
9
  6
CONTINUOUS
 10
210.7393951416015909
 20
15.9933853149414098
 30
0.0
 11
210.8800506591796875
 21
15.9933853149414098
 31
0.0
  0
LINE
  5
66F
100
AcDbEntity
100
AcDbLine
  8
FOREGROUND
 62
256
370
9
  6
CONTINUOUS
 10
211.1613616943359091
 20
15.9933853149414098
 30
0.0
 11
211.3020324707030966
 21
15.9933853149414098
 31
0.0
  0
LINE
  5
670
100
AcDbEntity
100
AcDbLine
  8
FOREGROUND
 62
256
370
9
  6
CONTINUOUS
 10
195.1970367431640909
 20
16.0282287597656214
 30
0.0
 11
195.6893157958984091
 21
16.0282287597656214
 31
0.0
  0
LINE
  5
671
100
AcDbEntity
100
AcDbLine
  8
FOREGROUND
 62
256
370
9
  6
CONTINUOUS
 10
195.8299713134765909
 20
16.0282287597656214
 30
0.0
 11
196.1112823486328125
 21
16.0282287597656214
 31
0.0
  0
LINE
  5
672
100
AcDbEntity
100
AcDbLine
  8
FOREGROUND
 62
256
370
9
  6
CONTINUOUS
 10
196.4277648925780966
 20
16.0282287597656214
 30
0.0
 11
196.9200439453125
 21
16.0282287597656214
 31
0.0
  0
LINE
  5
673
100
AcDbEntity
100
AcDbLine
  8
FOREGROUND
 62
256
370
9
  6
CONTINUOUS
 10
197.0606994628905966
 20
16.0282287597656214
 30
0.0
 11
197.3420257568359091
 21
16.0282287597656214
 31
0.0
  0
LINE
  5
674
100
AcDbEntity
100
AcDbLine
  8
FOREGROUND
 62
256
370
9
  6
CONTINUOUS
 10
197.4474792480469034
 20
16.0282287597656214
 30
0.0
 11
197.6233215332030966
 21
16.0282287597656214
 31
0.0
  0
LINE
  5
675
100
AcDbEntity
100
AcDbLine
  8
FOREGROUND
 62
256
370
9
  6
CONTINUOUS
 10
197.7639923095703125
 20
16.0282287597656214
 30
0.0
 11
198.3617401123046875
 21
16.0282287597656214
 31
0.0
  0
LINE
  5
676
100
AcDbEntity
100
AcDbLine
  8
FOREGROUND
 62
256
370
9
  6
CONTINUOUS
 10
198.4672393798828125
 20
16.0282287597656214
 30
0.0
 11
198.8892059326171875
 21
16.0282287597656214
 31
0.0
  0
LINE
  5
677
100
AcDbEntity
100
AcDbLine
  8
FOREGROUND
 62
256
370
9
  6
CONTINUOUS
 10
199.3463439941405966
 20
16.0282287597656214
 30
0.0
 11
199.5573120117188068
 21
16.0282287597656214
 31
0.0
  0
LINE
  5
678
100
AcDbEntity
100
AcDbLine
  8
FOREGROUND
 62
256
370
9
  6
CONTINUOUS
 10
199.873779296875
 20
16.0282287597656214
 30
0.0
 11
200.0847930908203125
 21
16.0282287597656214
 31
0.0
  0
LINE
  5
679
100
AcDbEntity
100
AcDbLine
  8
FOREGROUND
 62
256
370
9
  6
CONTINUOUS
 10
200.4715576171875
 20
16.0282287597656214
 30
0.0
 11
200.6825714111328125
 21
16.0282287597656214
 31
0.0
  0
LINE
  5
67A
100
AcDbEntity
100
AcDbLine
  8
FOREGROUND
 62
256
370
9
  6
CONTINUOUS
 10
201.0693664550780966
 20
16.0282287597656214
 30
0.0
 11
201.1045227050780966
 21
16.0282287597656214
 31
0.0
  0
LINE
  5
67B
100
AcDbEntity
100
AcDbLine
  8
FOREGROUND
 62
256
370
9
  6
CONTINUOUS
 10
201.5968322753905966
 20
16.0282287597656214
 30
0.0
 11
201.8429565429688068
 21
16.0282287597656214
 31
0.0
  0
LINE
  5
67C
100
AcDbEntity
100
AcDbLine
  8
FOREGROUND
 62
256
370
9
  6
CONTINUOUS
 10
202.2649230957030966
 20
16.0282287597656214
 30
0.0
 11
202.5110931396484091
 21
16.0282287597656214
 31
0.0
  0
LINE
  5
67D
100
AcDbEntity
100
AcDbLine
  8
FOREGROUND
 62
256
370
9
  6
CONTINUOUS
 10
202.5814056396484091
 20
16.0282287597656214
 30
0.0
 11
202.6165466308594034
 21
16.0282287597656214
 31
0.0
  0
LINE
  5
67E
100
AcDbEntity
100
AcDbLine
  8
FOREGROUND
 62
256
370
9
  6
CONTINUOUS
 10
202.6868896484375
 20
16.0282287597656214
 30
0.0
 11
202.9682159423828125
 21
16.0282287597656214
 31
0.0
  0
LINE
  5
67F
100
AcDbEntity
100
AcDbLine
  8
FOREGROUND
 62
256
370
9
  6
CONTINUOUS
 10
203.1088714599609091
 20
16.0282287597656214
 30
0.0
 11
203.3901977539061932
 21
16.0282287597656214
 31
0.0
  0
LINE
  5
680
100
AcDbEntity
100
AcDbLine
  8
FOREGROUND
 62
256
370
9
  6
CONTINUOUS
 10
203.4956512451171875
 20
16.0282287597656214
 30
0.0
 11
203.7769622802734091
 21
16.0282287597656214
 31
0.0
  0
LINE
  5
681
100
AcDbEntity
100
AcDbLine
  8
FOREGROUND
 62
256
370
9
  6
CONTINUOUS
 10
203.8473052978515909
 20
16.0282287597656214
 30
0.0
 11
204.0582885742188068
 21
16.0282287597656214
 31
0.0
  0
LINE
  5
682
100
AcDbEntity
100
AcDbLine
  8
FOREGROUND
 62
256
370
9
  6
CONTINUOUS
 10
204.304443359375
 20
16.0282287597656214
 30
0.0
 11
204.5505676269530966
 21
16.0282287597656214
 31
0.0
  0
LINE
  5
683
100
AcDbEntity
100
AcDbLine
  8
FOREGROUND
 62
256
370
9
  6
CONTINUOUS
 10
204.6209106445311932
 20
16.0282287597656214
 30
0.0
 11
205.1131896972655966
 21
16.0282287597656214
 31
0.0
  0
LINE
  5
684
100
AcDbEntity
100
AcDbLine
  8
FOREGROUND
 62
256
370
9
  6
CONTINUOUS
 10
205.2187042236328125
 20
16.0282287597656214
 30
0.0
 11
205.4296722412109091
 21
16.0282287597656214
 31
0.0
  0
LINE
  5
685
100
AcDbEntity
100
AcDbLine
  8
FOREGROUND
 62
256
370
9
  6
CONTINUOUS
 10
205.6758270263671875
 20
16.0282287597656214
 30
0.0
 11
205.9219512939453125
 21
16.0282287597656214
 31
0.0
  0
LINE
  5
686
100
AcDbEntity
100
AcDbLine
  8
FOREGROUND
 62
256
370
9
  6
CONTINUOUS
 10
205.9922943115234091
 20
16.0282287597656214
 30
0.0
 11
206.4142608642578125
 21
16.0282287597656214
 31
0.0
  0
LINE
  5
687
100
AcDbEntity
100
AcDbLine
  8
FOREGROUND
 62
256
370
9
  6
CONTINUOUS
 10
206.9417114257811932
 20
16.0282287597656214
 30
0.0
 11
206.9768676757811932
 21
16.0282287597656214
 31
0.0
  0
LINE
  5
688
100
AcDbEntity
100
AcDbLine
  8
FOREGROUND
 62
256
370
9
  6
CONTINUOUS
 10
207.3636779785155966
 20
16.0282287597656214
 30
0.0
 11
207.6450042724609091
 21
16.0282287597656214
 31
0.0
  0
LINE
  5
689
100
AcDbEntity
100
AcDbLine
  8
FOREGROUND
 62
256
370
9
  6
CONTINUOUS
 10
207.7856140136719034
 20
16.0282287597656214
 30
0.0
 11
208.0317840576171875
 21
16.0282287597656214
 31
0.0
  0
LINE
  5
68A
100
AcDbEntity
100
AcDbLine
  8
FOREGROUND
 62
256
370
9
  6
CONTINUOUS
 10
208.5944061279296875
 20
16.0282287597656214
 30
0.0
 11
208.8405303955078125
 21
16.0282287597656214
 31
0.0
  0
LINE
  5
68B
100
AcDbEntity
100
AcDbLine
  8
FOREGROUND
 62
256
370
9
  6
CONTINUOUS
 10
208.910888671875
 20
16.0282287597656214
 30
0.0
 11
208.9460296630859091
 21
16.0282287597656214
 31
0.0
  0
LINE
  5
68C
100
AcDbEntity
100
AcDbLine
  8
FOREGROUND
 62
256
370
9
  6
CONTINUOUS
 10
209.0867004394530966
 20
16.0282287597656214
 30
0.0
 11
209.2976684570311932
 21
16.0282287597656214
 31
0.0
  0
LINE
  5
68D
100
AcDbEntity
100
AcDbLine
  8
FOREGROUND
 62
256
370
9
  6
CONTINUOUS
 10
209.6844787597655966
 20
16.0282287597656214
 30
0.0
 11
209.8954467773438068
 21
16.0282287597656214
 31
0.0
  0
LINE
  5
68E
100
AcDbEntity
100
AcDbLine
  8
FOREGROUND
 62
256
370
9
  6
CONTINUOUS
 10
210.0009613037109091
 20
16.0282287597656214
 30
0.0
 11
210.4229278564453125
 21
16.0282287597656214
 31
0.0
  0
LINE
  5
68F
100
AcDbEntity
100
AcDbLine
  8
FOREGROUND
 62
256
370
9
  6
CONTINUOUS
 10
210.6690521240234091
 20
16.0282287597656214
 30
0.0
 11
210.9503784179688068
 21
16.0282287597656214
 31
0.0
  0
LINE
  5
690
100
AcDbEntity
100
AcDbLine
  8
FOREGROUND
 62
256
370
9
  6
CONTINUOUS
 10
211.0910186767578125
 20
16.0282287597656214
 30
0.0
 11
211.3723449707030966
 21
16.0282287597656214
 31
0.0
  0
ENDBLK
  5
691
100
AcDbEntity
  8
0
100
AcDbBlockEnd
  0
ENDSEC
  0
SECTION
  2
ENTITIES
  0
INSERT
  5
692
100
AcDbEntity
100
AcDbBlockReference
  8
Caddy_1
 62
256
370
-1
  6
ByLayer
  2
Blk1
 10
0.0
 20
0.0
 30
0.0
  0
INSERT
  5
693
100
AcDbEntity
100
AcDbBlockReference
  8
Caddy_1
 62
256
370
-1
  6
ByLayer
  2
Blk2
 10
0.0
 20
0.0
 30
0.0
  0
ENDSEC
  0
SECTION
  2
OBJECTS
  0
DICTIONARY
  5
C
100
AcDbDictionary
280
0
281
1
  3
ACAD_GROUP
350
D
  3
ACAD_LAYOUT
350
1A
  3
ACAD_MLINESTYLE
350
17
  3
ACAD_PLOTSETTINGS
350
19
  3
ACAD_PLOTSTYLENAME
350
E
  3
AcDbVariableDictionary
350
694
  0
DICTIONARY
  5
D
100
AcDbDictionary
280
0
281
1
  0
ACDBDICTIONARYWDFLT
  5
E
100
AcDbDictionary
281
1
  3
Normal
350
F
100
AcDbDictionaryWithDefault
340
F
  0
ACDBPLACEHOLDER
  5
F
  0
DICTIONARY
  5
17
100
AcDbDictionary
280
0
281
1
  3
Standard
350
18
  0
MLINESTYLE
  5
18
100
AcDbMlineStyle
  2
STANDARD
 70
0
  3

 62
256
 51
90.0
 52
90.0
 71
2
 49
0.5
 62
256
  6
BYLAYER
 49
-0.5
 62
256
  6
BYLAYER
  0
DICTIONARY
  5
19
100
AcDbDictionary
280
0
281
1
  0
DICTIONARY
  5
1A
100
AcDbDictionary
281
1
  3
Layout1
350
1E
  3
Layout2
350
26
  3
Model
350
22
  0
LAYOUT
  5
1E
100
AcDbPlotSettings
  1

  2
C:\Program Files\AutoCAD 2002\plotters\DWF ePlot (optimized for plotting).pc3
  4

  6

 40
0.0
 41
0.0
 42
0.0
 43
0.0
 44
0.0
 45
0.0
 46
0.0
 47
0.0
 48
0.0
 49
0.0
140
0.0
141
0.0
142
1.0
143
1.0
 70
688
 72
0
 73
0
 74
5
  7

 75
16
147
1.0
148
0.0
149
0.0
100
AcDbLayout
  1
Layout1
 70
1
 71
1
 10
0.0
 20
0.0
 11
420.0
 21
297.0
 12
0.0
 22
0.0
 32
0.0
 14
100000000000000000000.0
 24
100000000000000000000.0
 34
100000000000000000000.0
 15
-100000000000000000000.0
 25
-100000000000000000000.0
 35
-100000000000000000000.0
146
0.0
 13
0.0
 23
0.0
 33
0.0
 16
1.0
 26
0.0
 36
0.0
 17
0.0
 27
1.0
 37
0.0
 76
0
330
1B
  0
LAYOUT
  5
22
100
AcDbPlotSettings
  1

  2
C:\Program Files\AutoCAD 2002\plotters\DWF ePlot (optimized for plotting).pc3
  4

  6

 40
0.0
 41
0.0
 42
0.0
 43
0.0
 44
0.0
 45
0.0
 46
0.0
 47
0.0
 48
0.0
 49
0.0
140
0.0
141
0.0
142
1.0
143
1.0
 70
1712
 72
0
 73
0
 74
0
  7

 75
0
147
1.0
148
0.0
149
0.0
100
AcDbLayout
  1
Model
 70
1
 71
0
 10
0.0
 20
0.0
 11
12.0
 21
9.0
 12
0.0
 22
0.0
 32
0.0
 14
0.0
 24
0.0
 34
0.0
 15
0.0
 25
0.0
 35
0.0
146
0.0
 13
0.0
 23
0.0
 33
0.0
 16
1.0
 26
0.0
 36
0.0
 17
0.0
 27
1.0
 37
0.0
 76
0
330
1F
  0
LAYOUT
  5
26
100
AcDbPlotSettings
  1

  2
C:\Program Files\AutoCAD 2002\plotters\DWF ePlot (optimized for plotting).pc3
  4

  6

 40
0.0
 41
0.0
 42
0.0
 43
0.0
 44
0.0
 45
0.0
 46
0.0
 47
0.0
 48
0.0
 49
0.0
140
0.0
141
0.0
142
1.0
143
1.0
 70
688
 72
0
 73
0
 74
5
  7

 75
16
147
1.0
148
0.0
149
0.0
100
AcDbLayout
  1
Layout2
 70
1
 71
2
 10
0.0
 20
0.0
 11
12.0
 21
9.0
 12
0.0
 22
0.0
 32
0.0
 14
0.0
 24
0.0
 34
0.0
 15
0.0
 25
0.0
 35
0.0
146
0.0
 13
0.0
 23
0.0
 33
0.0
 16
1.0
 26
0.0
 36
0.0
 17
0.0
 27
1.0
 37
0.0
 76
0
330
23
  0
DICTIONARY
  5
694
100
AcDbDictionary
281
1
  3
DIMASSOC
350
696
  3
HIDETEXT
350
695
  0
DICTIONARYVAR
  5
695
100
DictionaryVariables
280
0
  1
2
  0
DICTIONARYVAR
  5
696
100
DictionaryVariables
280
0
  1
1
  0
ENDSEC
  0
EOF
