999
dxflib 2.0.4.8
  0
SECTION
  2
HEADER
  9
$ACADVER
  1
AC1015
  9
$HANDSEED
  5
FFFF
  9
$USERR4
 40
0.0
  9
$DIMTDEC
 70
2
  9
$DIMTAD
 70
1
  9
$CMLSTYLE
  2
STANDARD
  9
$VISRETAIN
 70
1
  9
$TILEMODE
 70
1
  9
$SHADEDIF
 70
70
  9
$USERR5
 40
0.0
  9
$UCSYDIR
 10
0.0
 20
1.0
 30
0.0
  9
$ATTREQ
 70
1
  9
$CHAMFERA
 40
10.0
  9
$MENU
  1
.
  9
$DIMUNIT
 70
2
  9
$DIMALTZ
 70
0
  9
$DELOBJ
 70
1
  9
$CLAYER
  8
0
  9
$DIMASZ
 40
2.5
  9
$GRIDUNIT
 10
0.0
 20
0.0
  9
$DIMADEC
 70
0
  9
$UCSXDIR
 10
1.0
 20
0.0
 30
0.0
  9
$CHAMFERB
 40
10.0
  9
$DIMUPT
 70
0
  9
$TRACEWID
 40
1.0
  9
$REGENMODE
 70
1
  9
$ORTHOMODE
 70
0
  9
$EXTMIN
 10
0.0
 20
0.0
 30
0.0
  9
$DIMGAP
 40
0.625
  9
$MEASUREMENT
 70
1
  9
$CMLJUST
 70
0
  9
$PICKSTYLE
 70
1
  9
$PUCSYDIR
 10
0.0
 20
1.0
 30
0.0
  9
$ANGBASE
 50
0.0
  9
$USRTIMER
 70
1
  9
$CHAMFERC
 40
20.0
  9
$SKETCHINC
 40
1.0
  9
$DIMTFAC
 40
1.0
  9
$DIMSAH
 70
0
  9
$DIMALT
 70
0
  9
$DIMSHO
 70
1
  9
$PUCSXDIR
 10
1.0
 20
0.0
 30
0.0
  9
$SURFTYPE
 70
6
  9
$SPLFRAME
 70
0
  9
$CHAMFERD
 40
0.0
  9
$DIMALTTD
 70
3
  9
$DIMTSZ
 40
0.0
  9
$LIMMIN
 10
0.0
 20
0.0
  9
$SPLINESEGS
 70
8
  9
$AUPREC
 70
0
  9
$LUNITS
 70
2
  9
$SURFTAB1
 70
6
  9
$DWGCODEPAGE
  3
ANSI_1252
  9
$UNITMODE
 70
0
  9
$USERI1
 70
0
  9
$SURFTAB2
 70
6
  9
$SKPOLY
 70
0
  9
$ELEVATION
 40
0.0
  9
$DIMCEN
 40
2.5
  9
$DIMRND
 40
0.0
  9
$INSBASE
 10
0.0
 20
0.0
 30
0.0
  9
$DIMEXO
 40
0.625
  9
$INSUNITS
 70
4
  9
$USERI2
 70
0
  9
$UCSORG
 10
0.0
 20
0.0
 30
0.0
  9
$PELEVATION
 40
0.0
  9
$TEXTSIZE
 40
2.5
  9
$DRAGMODE
 70
2
  9
$FILLMODE
 70
1
  9
$EXTMAX
 10
420.0
 20
295.0
 30
0.0
  9
$USERI3
 70
0
  9
$SURFU
 70
6
  9
$ANGDIR
 70
0
  9
$TDUSRTIMER
 40
0.0000000116
  9
$DIMTZIN
 70
8
  9
$DIMTOLJ
 70
0
  9
$DIMZIN
 70
8
  9
$DIMDLE
 40
0.0
  9
$DIMSCALE
 40
1.0
  9
$DIMLUNIT
 70
2
  9
$WORLDVIEW
 70
1
  9
$USERI4
 70
0
  9
$SURFV
 70
6
  9
$DIMALTTZ
 70
0
  9
$DIMJUST
 70
0
  9
$OSMODE
 70
37
  9
$QTEXTMODE
 70
0
  9
$LIMMAX
 10
420.0
 20
297.0
  9
$ACADMAINTVER
 70
9
  9
$DIMTXT
 40
2.5
  9
$GRIDMODE
 70
1
  9
$PROXYGRAPHICS
 70
1
  9
$USERI5
 70
0
  9
$HANDLING
 70
1
  9
$PDMODE
 70
0
  9
$LIMCHECK
 70
0
  9
$THICKNESS
 40
0.0
  9
$DIMSE1
 70
0
  9
$DIMLIM
 70
0
  9
$ATTMODE
 70
1
  9
$LUPREC
 70
4
  9
$PEXTMAX
 10
-100000000000000000000.0
 20
-100000000000000000000.0
 30
-100000000000000000000.0
  9
$PEXTMIN
 10
100000000000000000000.0
 20
100000000000000000000.0
 30
100000000000000000000.0
  9
$PUCSORG
 10
0.0
 20
0.0
 30
0.0
  9
$SPLINETYPE
 70
6
  9
$TDINDWG
 40
0.0000000116
  9
$DIMSOXD
 70
0
  9
$DIMLFAC
 40
1.0
  9
$DIMSE2
 70
0
  9
$DIMTOH
 70
0
  9
$CELTYPE
  6
BYLAYER
  9
$PSVPSCALE
 40
0.6265875728300245
  9
$PLIMCHECK
 70
0
  9
$PLINEWID
 40
0.0
  9
$DIMSTYLE
  2
ISO-25
  9
$DIMTVP
 40
0.0
  9
$DIMASO
 70
1
  9
$DIMTM
 40
0.0
  9
$DIMDLI
 40
3.75
  9
$DISPSILH
 70
0
  9
$CECOLOR
 62
256
  9
$PLIMMAX
 10
297.0
 20
210.0
  9
$PLIMMIN
 10
0.0
 20
0.0
  9
$TREEDEPTH
 70
3020
  9
$MAXACTVP
 70
64
  9
$TDUPDATE
 40
2451930.8125
  9
$FILLETRAD
 40
10.0
  9
$DIMALTU
 70
2
  9
$DIMDEC
 70
2
  9
$DIMCLRT
 70
0
  9
$DIMALTD
 70
3
  9
$DIMTIH
 70
0
  9
$LTSCALE
 40
1.0
  9
$PINSBASE
 10
16.9166001447272549
 20
12.5000000000000142
 30
0.0
  9
$DIMEXE
 40
1.25
  9
$CMLSCALE
 40
20.0
  9
$USERR1
 40
0.0
  9
$ATTDIA
 70
0
  9
$PDSIZE
 40
0.0
  9
$DIMTXSTY
  7
STANDARD
  9
$DIMCLRD
 70
0
  9
$CELTSCALE
 40
1.0
  9
$DIMAUNIT
 70
0
  9
$PSLTSCALE
 70
1
  9
$PLINEGEN
 70
0
  9
$SHADEDGE
 70
3
  9
$USERR2
 40
0.0
  9
$COORDS
 70
1
  9
$TDCREATE
 40
2451930.5833333330228925
  9
$DIMFIT
 70
3
  9
$DIMSD1
 70
0
  9
$DIMCLRE
 70
0
  9
$DIMTOFL
 70
1
  9
$DIMALTF
 40
0.03937007874016
  9
$DIMTOL
 70
0
  9
$DIMTP
 40
0.0
  9
$TEXTSTYLE
  7
STANDARD
  9
$AUNITS
 70
0
  9
$USERR3
 40
0.0
  9
$DIMSD2
 70
0
  9
$DIMTIX
 70
0
  9
$MIRRTEXT
 70
1
  0
ENDSEC
  0
SECTION
  2
TABLES
  0
TABLE
  2
VPORT
  5
8
100
AcDbSymbolTable
 70
1
  0
VPORT
  5
30
100
AcDbSymbolTableRecord
100
AcDbViewportTableRecord
  2
*Active
 70
0
 10
0.0
 20
0.0
 11
1.0
 21
1.0
 12
286.3055555555554861
 22
148.5
 13
0.0
 23
0.0
 14
10.0
 24
10.0
 15
10.0
 25
10.0
 16
0.0
 26
0.0
 36
1.0
 17
0.0
 27
0.0
 37
0.0
 40
297.0
 41
1.92798353909465
 42
50.0
 43
0.0
 44
0.0
 50
0.0
 51
0.0
 71
0
 72
100
 73
1
 74
3
 75
1
 76
1
 77
0
 78
0
281
0
 65
1
110
0.0
120
0.0
130
0.0
111
1.0
121
0.0
131
0.0
112
0.0
122
1.0
132
0.0
 79
0
146
0.0
  0
ENDTAB
  0
TABLE
  2
LTYPE
  5
5
100
AcDbSymbolTable
 70
21
  0
LTYPE
  5
14
100
AcDbSymbolTableRecord
100
AcDbLinetypeTableRecord
  2
ByBlock
 70
0
  3

 72
65
 73
0
 40
0.0
  0
LTYPE
  5
15
100
AcDbSymbolTableRecord
100
AcDbLinetypeTableRecord
  2
ByLayer
 70
0
  3

 72
65
 73
0
 40
0.0
  0
LTYPE
  5
16
100
AcDbSymbolTableRecord
100
AcDbLinetypeTableRecord
  2
CONTINUOUS
 70
0
  3
Solid line
 72
65
 73
0
 40
0.0
  0
LTYPE
  5
31
100
AcDbSymbolTableRecord
100
AcDbLinetypeTableRecord
  2
DOT
 70
0
  3
Dot . . . . . . . . . . . . . . . . . . . . . .
 72
65
 73
2
 40
6.3499999999999996
 49
0.0
 74
0
 49
-6.3499999999999996
 74
0
  0
LTYPE
  5
32
100
AcDbSymbolTableRecord
100
AcDbLinetypeTableRecord
  2
DOT2
 70
0
  3
Dot (.5x) .....................................
 72
65
 73
2
 40
3.1749999999999998
 49
0.0
 74
0
 49
-3.1749999999999998
 74
0
  0
LTYPE
  5
33
100
AcDbSymbolTableRecord
100
AcDbLinetypeTableRecord
  2
DOTX2
 70
0
  3
Dot (2x) .  .  .  .  .  .  .  .  .  .  .  .  .
 72
65
 73
2
 40
12.6999999999999993
 49
0.0
 74
0
 49
-12.6999999999999993
 74
0
  0
LTYPE
  5
34
100
AcDbSymbolTableRecord
100
AcDbLinetypeTableRecord
  2
DASHED
 70
0
  3
Dashed __ __ __ __ __ __ __ __ __ __ __ __ __ _
 72
65
 73
2
 40
19.0500000000000007
 49
12.6999999999999993
 74
0
 49
-6.3499999999999996
 74
0
  0
LTYPE
  5
35
100
AcDbSymbolTableRecord
100
AcDbLinetypeTableRecord
  2
DASHED2
 70
0
  3
Dashed (.5x) _ _ _ _ _ _ _ _ _ _ _ _ _ _ _ _ _
 72
65
 73
2
 40
9.5250000000000004
 49
6.3499999999999996
 74
0
 49
-3.1749999999999998
 74
0
  0
LTYPE
  5
36
100
AcDbSymbolTableRecord
100
AcDbLinetypeTableRecord
  2
DASHEDX2
 70
0
  3
Dashed (2x) ____  ____  ____  ____  ____  ___
 72
65
 73
2
 40
38.1000000000000014
 49
25.3999999999999986
 74
0
 49
-12.6999999999999993
 74
0
  0
LTYPE
  5
37
100
AcDbSymbolTableRecord
100
AcDbLinetypeTableRecord
  2
DASHDOT
 70
0
  3
Dash dot __ . __ . __ . __ . __ . __ . __ . __
 72
65
 73
4
 40
25.3999999999999986
 49
12.6999999999999993
 74
0
 49
-6.3499999999999996
 74
0
 49
0.0
 74
0
 49
-6.3499999999999996
 74
0
  0
LTYPE
  5
38
100
AcDbSymbolTableRecord
100
AcDbLinetypeTableRecord
  2
DASHDOT2
 70
0
  3
Dash dot (.5x) _._._._._._._._._._._._._._._.
 72
65
 73
4
 40
12.6999999999999993
 49
6.3499999999999996
 74
0
 49
-3.1749999999999998
 74
0
 49
0.0
 74
0
 49
-3.1749999999999998
 74
0
  0
LTYPE
  5
39
100
AcDbSymbolTableRecord
100
AcDbLinetypeTableRecord
  2
DASHDOTX2
 70
0
  3
Dash dot (2x) ____  .  ____  .  ____  .  ___
 72
65
 73
4
 40
50.7999999999999972
 49
25.3999999999999986
 74
0
 49
-12.6999999999999993
 74
0
 49
0.0
 74
0
 49
-12.6999999999999993
 74
0
  0
LTYPE
  5
3A
100
AcDbSymbolTableRecord
100
AcDbLinetypeTableRecord
  2
DIVIDE
 70
0
  3
Divide ____ . . ____ . . ____ . . ____ . . ____
 72
65
 73
6
 40
31.75
 49
12.6999999999999993
 74
0
 49
-6.3499999999999996
 74
0
 49
0.0
 74
0
 49
-6.3499999999999996
 74
0
 49
0.0
 74
0
 49
-6.3499999999999996
 74
0
  0
LTYPE
  5
3B
100
AcDbSymbolTableRecord
100
AcDbLinetypeTableRecord
  2
DIVIDE2
 70
0
  3
Divide (.5x) __..__..__..__..__..__..__..__.._
 72
65
 73
6
 40
15.875
 49
6.3499999999999996
 74
0
 49
-3.1749999999999998
 74
0
 49
0.0
 74
0
 49
-3.1749999999999998
 74
0
 49
0.0
 74
0
 49
-3.1749999999999998
 74
0
  0
LTYPE
  5
3C
100
AcDbSymbolTableRecord
100
AcDbLinetypeTableRecord
  2
DIVIDEX2
 70
0
  3
Divide (2x) ________  .  .  ________  .  .  _
 72
65
 73
6
 40
63.5
 49
25.3999999999999986
 74
0
 49
-12.6999999999999993
 74
0
 49
0.0
 74
0
 49
-12.6999999999999993
 74
0
 49
0.0
 74
0
 49
-12.6999999999999993
 74
0
  0
LTYPE
  5
3D
100
AcDbSymbolTableRecord
100
AcDbLinetypeTableRecord
  2
CENTER
 70
0
  3
Center ____ _ ____ _ ____ _ ____ _ ____ _ ____
 72
65
 73
4
 40
50.7999999999999972
 49
31.75
 74
0
 49
-6.3499999999999996
 74
0
 49
6.3499999999999996
 74
0
 49
-6.3499999999999996
 74
0
  0
LTYPE
  5
3E
100
AcDbSymbolTableRecord
100
AcDbLinetypeTableRecord
  2
CENTER2
 70
0
  3
Center (.5x) ___ _ ___ _ ___ _ ___ _ ___ _ ___
 72
65
 73
4
 40
28.5749999999999993
 49
19.0500000000000007
 74
0
 49
-3.1749999999999998
 74
0
 49
3.1749999999999998
 74
0
 49
-3.1749999999999998
 74
0
  0
LTYPE
  5
3F
100
AcDbSymbolTableRecord
100
AcDbLinetypeTableRecord
  2
CENTERX2
 70
0
  3
Center (2x) ________  __  ________  __  _____
 72
65
 73
4
 40
101.5999999999999943
 49
63.5
 74
0
 49
-12.6999999999999993
 74
0
 49
12.6999999999999993
 74
0
 49
-12.6999999999999993
 74
0
  0
LTYPE
  5
40
100
AcDbSymbolTableRecord
100
AcDbLinetypeTableRecord
  2
BORDER
 70
0
  3
Border __ __ . __ __ . __ __ . __ __ . __ __ .
 72
65
 73
6
 40
44.4500000000000028
 49
12.6999999999999993
 74
0
 49
-6.3499999999999996
 74
0
 49
12.6999999999999993
 74
0
 49
-6.3499999999999996
 74
0
 49
0.0
 74
0
 49
-6.3499999999999996
 74
0
  0
LTYPE
  5
41
100
AcDbSymbolTableRecord
100
AcDbLinetypeTableRecord
  2
BORDER2
 70
0
  3
Border (.5x) __.__.__.__.__.__.__.__.__.__.__.
 72
65
 73
6
 40
22.2250000000000014
 49
6.3499999999999996
 74
0
 49
-3.1749999999999998
 74
0
 49
6.3499999999999996
 74
0
 49
-3.1749999999999998
 74
0
 49
0.0
 74
0
 49
-3.1749999999999998
 74
0
  0
LTYPE
  5
42
100
AcDbSymbolTableRecord
100
AcDbLinetypeTableRecord
  2
BORDERX2
 70
0
  3
Border (2x) ____  ____  .  ____  ____  .  ___
 72
65
 73
6
 40
88.9000000000000057
 49
25.3999999999999986
 74
0
 49
-12.6999999999999993
 74
0
 49
25.3999999999999986
 74
0
 49
-12.6999999999999993
 74
0
 49
0.0
 74
0
 49
-12.6999999999999993
 74
0
  0
ENDTAB
  0
TABLE
  2
LAYER
  5
2
100
AcDbSymbolTable
 70
3
  0
LAYER
  5
10
100
AcDbSymbolTableRecord
100
AcDbLayerTableRecord
  2
0
 70
0
 62
7
  6
CONTINUOUS
390
F
  0
LAYER
  5
43
100
AcDbSymbolTableRecord
100
AcDbLayerTableRecord
  2
CADDY_1
 70
0
 62
7
  6
CONTINUOUS
390
F
  0
LAYER
  5
44
100
AcDbSymbolTableRecord
100
AcDbLayerTableRecord
  2
CADDY_2
 70
0
 62
7
  6
CONTINUOUS
390
F
  0
ENDTAB
  0
TABLE
  2
STYLE
  5
3
100
AcDbSymbolTable
 70
1
  0
STYLE
  5
11
100
AcDbSymbolTableRecord
100
AcDbTextStyleTableRecord
  2
Standard
 70
0
 40
0.0
 41
0.75
 50
0.0
 71
0
 42
2.5
  3
txt
  4

  0
ENDTAB
  0
TABLE
  2
VIEW
  5
6
100
AcDbSymbolTable
 70
0
  0
ENDTAB
  0
TABLE
  2
UCS
  5
7
100
AcDbSymbolTable
 70
0
  0
ENDTAB
  0
TABLE
  2
APPID
  5
9
100
AcDbSymbolTable
 70
1
  0
APPID
  5
12
100
AcDbSymbolTableRecord
100
AcDbRegAppTableRecord
  2
ACAD
 70
0
  0
ENDTAB
  0
TABLE
  2
DIMSTYLE
  5
A
100
AcDbSymbolTable
 70
1
100
AcDbDimStyleTable
 71
0
  0
DIMSTYLE
105
27
100
AcDbSymbolTableRecord
100
AcDbDimStyleTableRecord
  2
Standard
 41
2.5
 42
0.625
 43
3.75
 44
1.25
 70
0
 73
0
 74
0
 77
1
 78
8
140
2.5
141
2.5
143
0.03937007874016
147
0.625
171
3
172
1
271
2
272
2
274
3
278
44
283
0
284
8
340
11
  0
ENDTAB
  0
TABLE
  2
BLOCK_RECORD
  5
1
100
AcDbSymbolTable
 70
1
  0
BLOCK_RECORD
  5
1F
100
AcDbSymbolTableRecord
100
AcDbBlockTableRecord
  2
*Model_Space
340
22
  0
BLOCK_RECORD
  5
1B
100
AcDbSymbolTableRecord
100
AcDbBlockTableRecord
  2
*Paper_Space
340
1E
  0
BLOCK_RECORD
  5
23
100
AcDbSymbolTableRecord
100
AcDbBlockTableRecord
  2
*Paper_Space0
340
26
  0
BLOCK_RECORD
  5
45
100
AcDbSymbolTableRecord
100
AcDbBlockTableRecord
  2
BLK1
340
0
  0
BLOCK_RECORD
  5
46
100
AcDbSymbolTableRecord
100
AcDbBlockTableRecord
  2
BLK2
340
0
  0
BLOCK_RECORD
  5
47
100
AcDbSymbolTableRecord
100
AcDbBlockTableRecord
  2
BLK3
340
0
  0
BLOCK_RECORD
  5
48
100
AcDbSymbolTableRecord
100
AcDbBlockTableRecord
  2
BLK4
340
0
  0
ENDTAB
  0
ENDSEC
  0
SECTION
  2
BLOCKS
  0
BLOCK
  5
20
100
AcDbEntity
  8
0
100
AcDbBlockBegin
  2
*Model_Space
 70
0
 10
0.0
 20
0.0
 30
0.0
  3
*Model_Space
  1

  0
ENDBLK
  5
21
100
AcDbEntity
  8
0
100
AcDbBlockEnd
  0
BLOCK
  5
1C
100
AcDbEntity
 67
1
  8
0
100
AcDbBlockBegin
  2
*Paper_Space
 70
0
 10
0.0
 20
0.0
 30
0.0
  3
*Paper_Space
  1

  0
ENDBLK
  5
1D
100
AcDbEntity
 67
1
  8
0
100
AcDbBlockEnd
  0
BLOCK
  5
24
100
AcDbEntity
  8
0
100
AcDbBlockBegin
  2
*Paper_Space0
 70
0
 10
0.0
 20
0.0
 30
0.0
  3
*Paper_Space0
  1

  0
ENDBLK
  5
25
100
AcDbEntity
  8
0
100
AcDbBlockEnd
  0
BLOCK
  5
49
100
AcDbEntity
  8
0
100
AcDbBlockBegin
  2
BLK1
 70
0
 10
0.0
 20
0.0
 30
0.0
  3
BLK1
  1

  0
MTEXT
  5
4A
100
AcDbEntity
100
AcDbMText
  8
CADDY_1
 62
256
370
-1
  6
ByLayer
 10
2.1840031370520592
 20
271.856006160378513
 30
0.0
 40
2.6460001990199089
 41
100.0
 71
7
 72
2
  1
A
  7
CADDY_VECTORFONT1N
 50
0.0
 73
0
 44
1.0
  0
LINE
  5
4B
100
AcDbEntity
100
AcDbLine
  8
CADDY_1
 62
256
370
-1
  6
CONTINUOUS
 10
414.750030517578125
 20
22.25
 30
0.0
 11
414.750030517578125
 21
290.000030517578125
 31
0.0
  0
LINE
  5
4C
100
AcDbEntity
100
AcDbLine
  8
CADDY_1
 62
256
370
-1
  6
CONTINUOUS
 10
5.25
 20
22.25
 30
0.0
 11
5.25
 21
290.000030517578125
 31
0.0
  0
MTEXT
  5
4D
100
AcDbEntity
100
AcDbMText
  8
CADDY_1
 62
256
370
-1
  6
ByLayer
 10
417.1230184100567726
 20
26.8560061603784597
 30
0.0
 40
2.6460001990199089
 41
100.0
 71
7
 72
2
  1
F
  7
CADDY_VECTORFONT1N
 50
0.0
 73
0
 44
1.0
  0
MTEXT
  5
4E
100
AcDbEntity
100
AcDbMText
  8
CADDY_1
 62
256
370
-1
  6
ByLayer
 10
417.1230184100567726
 20
75.8560137897729874
 30
0.0
 40
2.6460001990199089
 41
100.0
 71
7
 72
2
  1
E
  7
CADDY_VECTORFONT1N
 50
0.0
 73
0
 44
1.0
  0
MTEXT
  5
4F
100
AcDbEntity
100
AcDbMText
  8
CADDY_1
 62
256
370
-1
  6
ByLayer
 10
417.1230184100567726
 20
173.8560366779566095
 30
0.0
 40
2.6460001990199089
 41
100.0
 71
7
 72
2
  1
C
  7
CADDY_VECTORFONT1N
 50
0.0
 73
0
 44
1.0
  0
MTEXT
  5
50
100
AcDbEntity
100
AcDbMText
  8
CADDY_1
 62
256
370
-1
  6
ByLayer
 10
417.0285184029489756
 20
222.8559909015893936
 30
0.0
 40
2.6460001990199089
 41
100.0
 71
7
 72
2
  1
B
  7
CADDY_VECTORFONT1N
 50
0.0
 73
0
 44
1.0
  0
MTEXT
  5
51
100
AcDbEntity
100
AcDbMText
  8
CADDY_1
 62
256
370
-1
  6
ByLayer
 10
25.6619940102100408
 20
291.8060183674097061
 30
0.0
 40
2.6460001990199089
 41
100.0
 71
7
 72
2
  1
1
  7
CADDY_VECTORFONT1N
 50
0.0
 73
0
 44
1.0
  0
LINE
  5
52
100
AcDbEntity
100
AcDbLine
  8
CADDY_1
 62
256
370
-1
  6
CONTINUOUS
 10
414.750030517578125
 20
246.25
 30
0.0
 11
420.000030517578125
 21
246.25
 31
0.0
  0
LINE
  5
53
100
AcDbEntity
100
AcDbLine
  8
CADDY_1
 62
256
370
-1
  6
CONTINUOUS
 10
414.750030517578125
 20
197.2500305175780966
 30
0.0
 11
420.000030517578125
 21
197.2500305175780966
 31
0.0
  0
LINE
  5
54
100
AcDbEntity
100
AcDbLine
  8
CADDY_1
 62
256
370
-1
  6
CONTINUOUS
 10
414.750030517578125
 20
148.2500152587890909
 30
0.0
 11
420.000030517578125
 21
148.2500152587890909
 31
0.0
  0
LINE
  5
55
100
AcDbEntity
100
AcDbLine
  8
CADDY_1
 62
256
370
-1
  6
CONTINUOUS
 10
414.750030517578125
 20
99.2500152587890625
 30
0.0
 11
420.000030517578125
 21
99.2500152587890625
 31
0.0
  0
LINE
  5
56
100
AcDbEntity
100
AcDbLine
  8
CADDY_1
 62
256
370
-1
  6
CONTINUOUS
 10
414.750030517578125
 20
50.2500076293945312
 30
0.0
 11
420.000030517578125
 21
50.2500076293945312
 31
0.0
  0
LINE
  5
57
100
AcDbEntity
100
AcDbLine
  8
CADDY_1
 62
256
370
-1
  6
CONTINUOUS
 10
0.0
 20
50.2500076293945312
 30
0.0
 11
5.25
 21
50.2500076293945312
 31
0.0
  0
LINE
  5
58
100
AcDbEntity
100
AcDbLine
  8
CADDY_1
 62
256
370
-1
  6
CONTINUOUS
 10
0.0
 20
99.2500152587890625
 30
0.0
 11
5.25
 21
99.2500152587890625
 31
0.0
  0
LINE
  5
59
100
AcDbEntity
100
AcDbLine
  8
CADDY_1
 62
256
370
-1
  6
CONTINUOUS
 10
0.0
 20
148.2500152587890909
 30
0.0
 11
5.25
 21
148.2500152587890909
 31
0.0
  0
LINE
  5
5A
100
AcDbEntity
100
AcDbLine
  8
CADDY_1
 62
256
370
-1
  6
CONTINUOUS
 10
0.0
 20
197.2500305175780966
 30
0.0
 11
5.25
 21
197.2500305175780966
 31
0.0
  0
LINE
  5
5B
100
AcDbEntity
100
AcDbLine
  8
CADDY_1
 62
256
370
-1
  6
CONTINUOUS
 10
0.0
 20
246.25
 30
0.0
 11
5.25
 21
246.25
 31
0.0
  0
LINE
  5
5C
100
AcDbEntity
100
AcDbLine
  8
CADDY_1
 62
256
370
-1
  6
CONTINUOUS
 10
52.5
 20
290.000030517578125
 30
0.0
 11
52.5
 21
295.250030517578125
 31
0.0
  0
LINE
  5
5D
100
AcDbEntity
100
AcDbLine
  8
CADDY_1
 62
256
370
-1
  6
CONTINUOUS
 10
105.0000076293945028
 20
290.000030517578125
 30
0.0
 11
105.0000076293945028
 21
295.250030517578125
 31
0.0
  0
LINE
  5
5E
100
AcDbEntity
100
AcDbLine
  8
CADDY_1
 62
256
370
-1
  6
CONTINUOUS
 10
157.5000152587890909
 20
290.000030517578125
 30
0.0
 11
157.5000152587890909
 21
295.250030517578125
 31
0.0
  0
LINE
  5
5F
100
AcDbEntity
100
AcDbLine
  8
CADDY_1
 62
256
370
-1
  6
CONTINUOUS
 10
210.0000152587890909
 20
290.000030517578125
 30
0.0
 11
210.0000152587890909
 21
295.250030517578125
 31
0.0
  0
LINE
  5
60
100
AcDbEntity
100
AcDbLine
  8
CADDY_1
 62
256
370
-1
  6
CONTINUOUS
 10
262.500030517578125
 20
290.000030517578125
 30
0.0
 11
262.500030517578125
 21
295.250030517578125
 31
0.0
  0
LINE
  5
61
100
AcDbEntity
100
AcDbLine
  8
CADDY_1
 62
256
370
-1
  6
CONTINUOUS
 10
315.000030517578125
 20
290.000030517578125
 30
0.0
 11
315.000030517578125
 21
295.250030517578125
 31
0.0
  0
LINE
  5
62
100
AcDbEntity
100
AcDbLine
  8
CADDY_1
 62
256
370
-1
  6
CONTINUOUS
 10
367.500030517578125
 20
290.000030517578125
 30
0.0
 11
367.500030517578125
 21
295.250030517578125
 31
0.0
  0
MTEXT
  5
63
100
AcDbEntity
100
AcDbMText
  8
CADDY_1
 62
256
370
-1
  6
ByLayer
 10
77.8784939888864756
 20
291.8060183674097061
 30
0.0
 40
2.6460001990199089
 41
100.0
 71
7
 72
2
  1
2
  7
CADDY_VECTORFONT1N
 50
0.0
 73
0
 44
1.0
  0
MTEXT
  5
64
100
AcDbEntity
100
AcDbMText
  8
CADDY_1
 62
256
370
-1
  6
ByLayer
 10
130.473009254783392
 20
291.8060183674097061
 30
0.0
 40
2.6460001990199089
 41
100.0
 71
7
 72
2
  1
3
  7
CADDY_VECTORFONT1N
 50
0.0
 73
0
 44
1.0
  0
MTEXT
  5
65
100
AcDbEntity
100
AcDbMText
  8
CADDY_1
 62
256
370
-1
  6
ByLayer
 10
182.7840092405677126
 20
291.8060183674097061
 30
0.0
 40
2.6460001990199089
 41
100.0
 71
7
 72
2
  1
4
  7
CADDY_VECTORFONT1N
 50
0.0
 73
0
 44
1.0
  0
MTEXT
  5
66
100
AcDbEntity
100
AcDbMText
  8
CADDY_1
 62
256
370
-1
  6
ByLayer
 10
235.473009254783392
 20
291.8060183674097061
 30
0.0
 40
2.6460001990199089
 41
100.0
 71
7
 72
2
  1
5
  7
CADDY_VECTORFONT1N
 50
0.0
 73
0
 44
1.0
  0
MTEXT
  5
67
100
AcDbEntity
100
AcDbMText
  8
CADDY_1
 62
256
370
-1
  6
ByLayer
 10
287.8785245064646006
 20
291.8060183674097061
 30
0.0
 40
2.6460001990199089
 41
100.0
 71
7
 72
2
  1
6
  7
CADDY_VECTORFONT1N
 50
0.0
 73
0
 44
1.0
  0
MTEXT
  5
68
100
AcDbEntity
100
AcDbMText
  8
CADDY_1
 62
256
370
-1
  6
ByLayer
 10
340.3785245064646006
 20
291.8060183674097061
 30
0.0
 40
2.6460001990199089
 41
100.0
 71
7
 72
2
  1
7
  7
CADDY_VECTORFONT1N
 50
0.0
 73
0
 44
1.0
  0
MTEXT
  5
69
100
AcDbEntity
100
AcDbMText
  8
CADDY_1
 62
256
370
-1
  6
ByLayer
 10
392.8785245064646006
 20
291.8060183674097061
 30
0.0
 40
2.6460001990199089
 41
100.0
 71
7
 72
2
  1
8
  7
CADDY_VECTORFONT1N
 50
0.0
 73
0
 44
1.0
  0
MTEXT
  5
6A
100
AcDbEntity
100
AcDbMText
  8
CADDY_1
 62
256
370
-1
  6
ByLayer
 10
2.2785031441599131
 20
222.8559909015893936
 30
0.0
 40
2.6460001990199089
 41
100.0
 71
7
 72
2
  1
B
  7
CADDY_VECTORFONT1N
 50
0.0
 73
0
 44
1.0
  0
MTEXT
  5
6B
100
AcDbEntity
100
AcDbMText
  8
CADDY_1
 62
256
370
-1
  6
ByLayer
 10
2.373003151267767
 20
173.8560366779566095
 30
0.0
 40
2.6460001990199089
 41
100.0
 71
7
 72
2
  1
C
  7
CADDY_VECTORFONT1N
 50
0.0
 73
0
 44
1.0
  0
MTEXT
  5
6C
100
AcDbEntity
100
AcDbMText
  8
CADDY_1
 62
256
370
-1
  6
ByLayer
 10
2.2785031441599131
 20
124.8560061603784987
 30
0.0
 40
2.6460001990199089
 41
100.0
 71
7
 72
2
  1
D
  7
CADDY_VECTORFONT1N
 50
0.0
 73
0
 44
1.0
  0
MTEXT
  5
6D
100
AcDbEntity
100
AcDbMText
  8
CADDY_1
 62
256
370
-1
  6
ByLayer
 10
2.373003151267767
 20
75.8560137897729874
 30
0.0
 40
2.6460001990199089
 41
100.0
 71
7
 72
2
  1
E
  7
CADDY_VECTORFONT1N
 50
0.0
 73
0
 44
1.0
  0
MTEXT
  5
6E
100
AcDbEntity
100
AcDbMText
  8
CADDY_1
 62
256
370
-1
  6
ByLayer
 10
2.373003151267767
 20
26.8560061603784597
 30
0.0
 40
2.6460001990199089
 41
100.0
 71
7
 72
2
  1
F
  7
CADDY_VECTORFONT1N
 50
0.0
 73
0
 44
1.0
  0
MTEXT
  5
6F
100
AcDbEntity
100
AcDbMText
  8
CADDY_1
 62
256
370
-1
  6
ByLayer
 10
417.0285184029489756
 20
124.8560061603784987
 30
0.0
 40
2.6460001990199089
 41
100.0
 71
7
 72
2
  1
D
  7
CADDY_VECTORFONT1N
 50
0.0
 73
0
 44
1.0
  0
MTEXT
  5
70
100
AcDbEntity
100
AcDbMText
  8
CADDY_1
 62
256
370
-1
  6
ByLayer
 10
416.9340183958411217
 20
271.856006160378513
 30
0.0
 40
2.6460001990199089
 41
100.0
 71
7
 72
2
  1
A
  7
CADDY_VECTORFONT1N
 50
0.0
 73
0
 44
1.0
  0
LINE
  5
71
100
AcDbEntity
100
AcDbLine
  8
CADDY_1
 62
256
370
-1
  6
CONTINUOUS
 10
5.25
 20
290.000030517578125
 30
0.0
 11
414.750030517578125
 21
290.000030517578125
 31
0.0
  0
LINE
  5
72
100
AcDbEntity
100
AcDbLine
  8
CADDY_1
 62
256
370
-1
  6
CONTINUOUS
 10
5.25
 20
11.75
 30
0.0
 11
122.8500061035155966
 21
11.75
 31
0.0
  0
LINE
  5
73
100
AcDbEntity
100
AcDbLine
  8
CADDY_1
 62
256
370
-1
  6
CONTINUOUS
 10
5.25
 20
17.0
 30
0.0
 11
122.8500061035155966
 21
17.0
 31
0.0
  0
LINE
  5
74
100
AcDbEntity
100
AcDbLine
  8
CADDY_1
 62
256
370
-1
  6
CONTINUOUS
 10
225.7500152587890909
 20
1.25
 30
0.0
 11
225.7500152587890909
 21
22.25
 31
0.0
  0
LINE
  5
75
100
AcDbEntity
100
AcDbLine
  8
CADDY_1
 62
256
370
-1
  6
CONTINUOUS
 10
294.000030517578125
 20
1.25
 30
0.0
 11
294.000030517578125
 21
22.25
 31
0.0
  0
LINE
  5
76
100
AcDbEntity
100
AcDbLine
  8
CADDY_1
 62
256
370
-1
  6
CONTINUOUS
 10
414.750030517578125
 20
22.25
 30
0.0
 11
5.25
 21
22.25
 31
0.0
  0
LINE
  5
77
100
AcDbEntity
100
AcDbLine
  8
CADDY_1
 62
256
370
-1
  6
CONTINUOUS
 10
5.25
 20
1.25
 30
0.0
 11
0.0
 21
1.25
 31
0.0
  0
LINE
  5
78
100
AcDbEntity
100
AcDbLine
  8
CADDY_1
 62
256
370
-1
  6
CONTINUOUS
 10
294.000030517578125
 20
11.75
 30
0.0
 11
414.750030517578125
 21
11.75
 31
0.0
  0
LINE
  5
79
100
AcDbEntity
100
AcDbLine
  8
CADDY_1
 62
256
370
-1
  6
CONTINUOUS
 10
0.0
 20
291.050018310546875
 30
0.0
 11
4.1999969482421884
 21
295.250030517578125
 31
0.0
  0
LINE
  5
7A
100
AcDbEntity
100
AcDbLine
  8
CADDY_1
 62
256
370
-1
  6
CONTINUOUS
 10
416.8500366210938068
 20
295.250030517578125
 30
0.0
 11
420.000030517578125
 21
292.100006103515625
 31
0.0
  0
LINE
  5
7B
100
AcDbEntity
100
AcDbLine
  8
CADDY_1
 62
256
370
-1
  6
CONTINUOUS
 10
416.8500366210938068
 20
1.25
 30
0.0
 11
420.000030517578125
 21
4.399993896484375
 31
0.0
  0
LINE
  5
7C
100
AcDbEntity
100
AcDbLine
  8
CADDY_1
 62
256
370
-1
  6
CONTINUOUS
 10
0.0
 20
4.399993896484375
 30
0.0
 11
3.149993896484375
 21
1.25
 31
0.0
  0
MTEXT
  5
7D
100
AcDbEntity
100
AcDbMText
  8
CADDY_1
 62
256
370
-1
  6
ByLayer
 10
6.9300031661987296
 20
2.9300030618906021
 30
0.0
 40
2.2050000354647641
 41
100.0
 71
7
 72
2
  1
Zustand
  7
CADDY_VECTORFONT1P
 50
0.0
 73
0
 44
1.0
  0
MTEXT
  5
7E
100
AcDbEntity
100
AcDbMText
  8
CADDY_1
 62
256
370
-1
  6
ByLayer
 10
25.3050022125244105
 20
2.9300030618906021
 30
0.0
 40
2.2050000354647641
 41
100.0
 71
7
 72
2
  1
\U+00c4nderung
  7
CADDY_VECTORFONT1P
 50
0.0
 73
0
 44
1.0
  0
MTEXT
  5
7F
100
AcDbEntity
100
AcDbMText
  8
CADDY_1
 62
256
370
-1
  6
ByLayer
 10
45.7799949645996094
 20
2.9300030618906021
 30
0.0
 40
2.2050000354647641
 41
100.0
 71
7
 72
2
  1
Datum
  7
CADDY_VECTORFONT1P
 50
0.0
 73
0
 44
1.0
  0
MTEXT
  5
80
100
AcDbEntity
100
AcDbMText
  8
CADDY_1
 62
256
370
-1
  6
ByLayer
 10
72.0299911499023438
 20
2.9300030618906021
 30
0.0
 40
2.2050000354647641
 41
100.0
 71
7
 72
2
  1
Name
  7
CADDY_VECTORFONT1P
 50
0.0
 73
0
 44
1.0
  0
MTEXT
  5
81
100
AcDbEntity
100
AcDbMText
  8
CADDY_1
 62
256
370
-1
  6
ByLayer
 10
83.5800018310546875
 20
2.9300030618906021
 30
0.0
 40
2.2050000354647641
 41
100.0
 71
7
 72
2
  1
Norm
  7
CADDY_VECTORFONT1P
 50
0.0
 73
0
 44
1.0
  0
MTEXT
  5
82
100
AcDbEntity
100
AcDbMText
  8
CADDY_1
 62
256
370
-1
  6
ByLayer
 10
83.5800018310546875
 20
18.6800030618905986
 30
0.0
 40
2.2050000354647641
 41
100.0
 71
7
 72
2
  1
Datum
  7
CADDY_VECTORFONT1P
 50
0.0
 73
0
 44
1.0
  0
MTEXT
  5
83
100
AcDbEntity
100
AcDbMText
  8
CADDY_1
 62
256
370
-1
  6
ByLayer
 10
83.5800018310546875
 20
13.4300030618906003
 30
0.0
 40
2.2050000354647641
 41
100.0
 71
7
 72
2
  1
Bearb.
  7
CADDY_VECTORFONT1P
 50
0.0
 73
0
 44
1.0
  0
MTEXT
  5
84
100
AcDbEntity
100
AcDbMText
  8
CADDY_1
 62
256
370
-1
  6
ByLayer
 10
83.5800018310546875
 20
8.1800030618906021
 30
0.0
 40
2.2050000354647641
 41
100.0
 71
7
 72
2
  1
Gepr.
  7
CADDY_VECTORFONT1P
 50
0.0
 73
0
 44
1.0
  0
LINE
  5
85
100
AcDbEntity
100
AcDbLine
  8
CADDY_1
 62
256
370
-1
  6
CONTINUOUS
 10
44.1000061035156179
 20
22.25
 30
0.0
 11
44.1000061035156179
 21
1.25
 31
0.0
  0
LINE
  5
86
100
AcDbEntity
100
AcDbLine
  8
CADDY_1
 62
256
370
-1
  6
CONTINUOUS
 10
70.350006103515625
 20
22.25
 30
0.0
 11
70.350006103515625
 21
1.25
 31
0.0
  0
LINE
  5
87
100
AcDbEntity
100
AcDbLine
  8
CADDY_1
 62
256
370
-1
  6
CONTINUOUS
 10
81.9000091552734375
 20
22.25
 30
0.0
 11
81.9000091552734375
 21
1.25
 31
0.0
  0
LINE
  5
88
100
AcDbEntity
100
AcDbLine
  8
CADDY_1
 62
256
370
-1
  6
CONTINUOUS
 10
5.25
 20
6.5
 30
0.0
 11
225.7500152587890909
 21
6.5
 31
0.0
  0
LINE
  5
89
100
AcDbEntity
100
AcDbLine
  8
CADDY_1
 62
256
370
-1
  6
CONTINUOUS
 10
96.600006103515625
 20
22.25
 30
0.0
 11
96.600006103515625
 21
1.25
 31
0.0
  0
LINE
  5
8A
100
AcDbEntity
100
AcDbLine
  8
CADDY_1
 62
256
370
-1
  6
CONTINUOUS
 10
196.3500061035155966
 20
22.25
 30
0.0
 11
196.3500061035155966
 21
1.25
 31
0.0
  0
LINE
  5
8B
100
AcDbEntity
100
AcDbLine
  8
CADDY_1
 62
256
370
-1
  6
CONTINUOUS
 10
157.5000152587890909
 20
6.5
 30
0.0
 11
157.5000152587890909
 21
1.25
 31
0.0
  0
MTEXT
  5
8C
100
AcDbEntity
100
AcDbMText
  8
CADDY_1
 62
256
370
-1
  6
ByLayer
 10
124.5300064086914062
 20
2.9300030618906021
 30
0.0
 40
2.2050000354647641
 41
100.0
 71
7
 72
2
  1
Urspr.
  7
CADDY_VECTORFONT1P
 50
0.0
 73
0
 44
1.0
  0
MTEXT
  5
8D
100
AcDbEntity
100
AcDbMText
  8
CADDY_1
 62
256
370
-1
  6
ByLayer
 10
159.1800231933594034
 20
2.9300030618906021
 30
0.0
 40
2.2050000354647641
 41
100.0
 71
7
 72
2
  1
Ers.f.
  7
CADDY_VECTORFONT1P
 50
0.0
 73
0
 44
1.0
  0
MTEXT
  5
8E
100
AcDbEntity
100
AcDbMText
  8
CADDY_1
 62
256
370
-1
  6
ByLayer
 10
198.0300140380859091
 20
2.9300030618906021
 30
0.0
 40
2.2050000354647641
 41
100.0
 71
7
 72
2
  1
Ers.d.
  7
CADDY_VECTORFONT1P
 50
0.0
 73
0
 44
1.0
  0
MTEXT
  5
8F
100
AcDbEntity
100
AcDbMText
  8
CADDY_1
 62
256
370
-1
  6
ByLayer
 10
295.680023193359375
 20
13.4300030618906003
 30
0.0
 40
2.2050000354647641
 41
100.0
 71
7
 72
2
  1
Inv.-Nr.:
  7
CADDY_VECTORFONT1P
 50
0.0
 73
0
 44
1.0
  0
LINE
  5
90
100
AcDbEntity
100
AcDbLine
  8
CADDY_1
 62
256
370
-1
  6
CONTINUOUS
 10
333.9000244140625
 20
11.75
 30
0.0
 11
333.9000244140625
 21
1.25
 31
0.0
  0
MTEXT
  5
91
100
AcDbEntity
100
AcDbMText
  8
CADDY_1
 62
256
370
-1
  6
ByLayer
 10
335.5800170898438068
 20
8.1800030618906021
 30
0.0
 40
2.2050000354647641
 41
100.0
 71
7
 72
2
  1
Plan\~Nr.:
  7
CADDY_VECTORFONT1P
 50
0.0
 73
0
 44
1.0
  0
MTEXT
  5
92
100
AcDbEntity
100
AcDbMText
  8
CADDY_1
 62
256
370
-1
  6
ByLayer
 10
392.280029296875
 20
8.1800030618906021
 30
0.0
 40
2.2050000354647641
 41
100.0
 71
7
 72
2
  1
Bl.:
  7
CADDY_VECTORFONT1P
 50
0.0
 73
0
 44
1.0
  0
MTEXT
  5
93
100
AcDbEntity
100
AcDbMText
  8
CADDY_1
 62
256
370
-1
  6
ByLayer
 10
392.280029296875
 20
2.9300030618906021
 30
0.0
 40
2.2050000354647641
 41
100.0
 71
7
 72
2
  1
von:
  7
CADDY_VECTORFONT1P
 50
0.0
 73
0
 44
1.0
  0
LINE
  5
94
100
AcDbEntity
100
AcDbLine
  8
CADDY_1
 62
256
370
-1
  6
CONTINUOUS
 10
392.7000122070311932
 20
6.5
 30
0.0
 11
414.750030517578125
 21
6.5
 31
0.0
  0
MTEXT
  5
95
100
AcDbEntity
100
AcDbMText
  8
CADDY_1
 62
256
370
-1
  6
ByLayer
 10
335.5800170898438068
 20
2.9300030618906021
 30
0.0
 40
2.2050000354647641
 41
100.0
 71
7
 72
2
  1
Kunde:
  7
CADDY_VECTORFONT1P
 50
0.0
 73
0
 44
1.0
  0
LINE
  5
96
100
AcDbEntity
100
AcDbLine
  8
CADDY_1
 62
256
370
-1
  6
CONTINUOUS
 10
370.6500244140625
 20
22.25
 30
0.0
 11
370.6500244140625
 21
11.75
 31
0.0
  0
LINE
  5
97
100
AcDbEntity
100
AcDbLine
  8
CADDY_1
 62
256
370
-1
  6
CONTINUOUS
 10
370.6500244140625
 20
17.0
 30
0.0
 11
414.750030517578125
 21
17.0
 31
0.0
  0
MTEXT
  5
98
100
AcDbEntity
100
AcDbMText
  8
CADDY_1
 62
256
370
-1
  6
ByLayer
 10
372.3300170898438068
 20
18.6800030618905986
 30
0.0
 40
2.2050000354647641
 41
100.0
 71
7
 72
2
  1
Anl.:
  7
CADDY_VECTORFONT1P
 50
0.0
 73
0
 44
1.0
  0
MTEXT
  5
99
100
AcDbEntity
100
AcDbMText
  8
CADDY_1
 62
256
370
-1
  6
ByLayer
 10
372.3300170898438068
 20
13.4300030618906003
 30
0.0
 40
2.2050000354647641
 41
100.0
 71
7
 72
2
  1
Ort:
  7
CADDY_VECTORFONT1P
 50
0.0
 73
0
 44
1.0
  0
LINE
  5
9A
100
AcDbEntity
100
AcDbLine
  8
CADDY_1
 62
256
370
-1
  6
CONTINUOUS
 10
225.7500152587890909
 20
15.9499969482421893
 30
0.0
 11
225.7500152587890909
 21
3.350006103515625
 31
0.0
  0
LINE
  5
9B
100
AcDbEntity
100
AcDbLine
  8
CADDY_1
 62
256
370
-1
  6
CONTINUOUS
 10
122.8500061035155966
 20
22.25
 30
0.0
 11
122.8500061035155966
 21
1.25
 31
0.0
  0
LINE
  5
9C
100
AcDbEntity
100
AcDbLine
  8
CADDY_1
 62
256
370
-1
  6
CONTINUOUS
 10
390.6000366210938068
 20
11.75
 30
0.0
 11
390.6000366210938068
 21
1.25
 31
0.0
  0
LINE
  5
9D
100
AcDbEntity
100
AcDbLine
  8
CADDY_1
 62
256
370
-1
  6
CONTINUOUS
 10
390.6000366210938068
 20
6.5
 30
0.0
 11
393.750030517578125
 21
6.5
 31
0.0
  0
LINE
  5
9E
100
AcDbEntity
100
AcDbLine
  8
CADDY_1
 62
256
370
-1
  6
CONTINUOUS
 10
23.625
 20
22.25
 30
0.0
 11
23.625
 21
1.25
 31
0.0
  0
MTEXT
  5
9F
100
AcDbEntity
100
AcDbMText
  8
CADDY_1
 62
256
370
-1
  6
ByLayer
 10
109.2000010386109068
 20
13.4300030618906003
 30
0.0
 40
2.2050000354647641
 41
100.0
 71
8
 72
2
  1

  7
CADDY_VECTORFONT1P
 50
0.0
 73
0
 44
1.0
  0
MTEXT
  5
A0
100
AcDbEntity
100
AcDbMText
  8
CADDY_1
 62
256
370
-1
  6
ByLayer
 10
311.430023193359375
 20
13.4300030618906003
 30
0.0
 40
2.2050000354647641
 41
100.0
 71
7
 72
2
  1

  7
CADDY_VECTORFONT1P
 50
0.0
 73
0
 44
1.0
  0
MTEXT
  5
A1
100
AcDbEntity
100
AcDbMText
  8
CADDY_1
 62
256
370
-1
  6
ByLayer
 10
351.8550415039061932
 20
2.9300030618906021
 30
0.0
 40
2.2050000354647641
 41
100.0
 71
7
 72
2
  1
Freistaat\~Bayern
  7
CADDY_VECTORFONT1P
 50
0.0
 73
0
 44
1.0
  0
MTEXT
  5
A2
100
AcDbEntity
100
AcDbMText
  8
CADDY_1
 62
256
370
-1
  6
ByLayer
 10
159.6000165268779085
 20
15.2150000631809199
 30
0.0
 40
2.9400002211332321
 41
100.0
 71
8
 72
2
  1
Magic\~II\~Teleskop
  7
CADDY_VECTORFONT1P
 50
0.0
 73
0
 44
1.0
  0
MTEXT
  5
A3
100
AcDbEntity
100
AcDbMText
  8
CADDY_1
 62
256
370
-1
  6
ByLayer
 10
159.6000064760447117
 20
9.9650000631809235
 30
0.0
 40
2.9400002211332321
 41
100.0
 71
8
 72
2
  1

  7
CADDY_VECTORFONT1P
 50
0.0
 73
0
 44
1.0
  0
LINE
  5
A4
100
AcDbEntity
100
AcDbLine
  8
CADDY_1
 62
256
370
-1
  6
CONTINUOUS
 10
5.25
 20
22.25
 30
0.0
 11
5.25
 21
1.25
 31
0.0
  0
LINE
  5
A5
100
AcDbEntity
100
AcDbLine
  8
CADDY_1
 62
256
370
-1
  6
CONTINUOUS
 10
414.750030517578125
 20
1.25
 30
0.0
 11
414.750030517578125
 21
22.25
 31
0.0
  0
LINE
  5
A6
100
AcDbEntity
100
AcDbLine
  8
CADDY_1
 62
256
370
-1
  6
CONTINUOUS
 10
0.0
 20
1.25
 30
0.0
 11
420.000030517578125
 21
1.25
 31
0.0
  0
LINE
  5
A7
100
AcDbEntity
100
AcDbLine
  8
CADDY_1
 62
256
370
-1
  6
CONTINUOUS
 10
420.000030517578125
 20
1.25
 30
0.0
 11
420.000030517578125
 21
295.250030517578125
 31
0.0
  0
LINE
  5
A8
100
AcDbEntity
100
AcDbLine
  8
CADDY_1
 62
256
370
-1
  6
CONTINUOUS
 10
420.000030517578125
 20
295.250030517578125
 30
0.0
 11
0.0
 21
295.250030517578125
 31
0.0
  0
LINE
  5
A9
100
AcDbEntity
100
AcDbLine
  8
CADDY_1
 62
256
370
-1
  6
CONTINUOUS
 10
0.0
 20
295.250030517578125
 30
0.0
 11
0.0
 21
1.25
 31
0.0
  0
MTEXT
  5
AA
100
AcDbEntity
100
AcDbMText
  8
CADDY_1
 62
256
370
-1
  6
ByLayer
 10
257.250042237341404
 20
15.0050000101327896
 30
0.0
 40
2.2050000354647641
 41
100.0
 71
8
 72
2
  1

  7
CADDY_VECTORFONT1P
 50
0.0
 73
0
 44
1.0
  0
MTEXT
  5
AB
100
AcDbEntity
100
AcDbMText
  8
CADDY_1
 62
256
370
-1
  6
ByLayer
 10
109.1999926846473983
 20
8.1800030618906021
 30
0.0
 40
2.2050000354647641
 41
100.0
 71
8
 72
2
  1
28.08.2006
  7
CADDY_VECTORFONT1P
 50
0.0
 73
0
 44
1.0
  0
MTEXT
  5
AC
100
AcDbEntity
100
AcDbMText
  8
CADDY_1
 62
256
370
-1
  6
ByLayer
 10
401.7300415039061932
 20
8.1800030618906021
 30
0.0
 40
2.2050000354647641
 41
100.0
 71
7
 72
2
  1
2
  7
CADDY_VECTORFONT1P
 50
0.0
 73
0
 44
1.0
  0
MTEXT
  5
AD
100
AcDbEntity
100
AcDbMText
  8
CADDY_1
 62
256
370
-1
  6
ByLayer
 10
401.7300415039061932
 20
2.9300030618906021
 30
0.0
 40
2.2050000354647641
 41
100.0
 71
7
 72
2
  1
2
  7
CADDY_VECTORFONT1P
 50
0.0
 73
0
 44
1.0
  0
MTEXT
  5
AE
100
AcDbEntity
100
AcDbMText
  8
CADDY_1
 62
256
370
-1
  6
ByLayer
 10
257.250042237341404
 20
7.1300000101327896
 30
0.0
 40
2.2050000354647641
 41
100.0
 71
8
 72
2
  1

  7
CADDY_VECTORFONT1P
 50
0.0
 73
0
 44
1.0
  0
MTEXT
  5
AF
100
AcDbEntity
100
AcDbMText
  8
CADDY_1
 62
256
370
-1
  6
ByLayer
 10
109.1999926846473983
 20
18.6800030618905986
 30
0.0
 40
2.2050000354647641
 41
100.0
 71
8
 72
2
  1
28.08.2006
  7
CADDY_VECTORFONT1P
 50
0.0
 73
0
 44
1.0
  0
MTEXT
  5
B0
100
AcDbEntity
100
AcDbMText
  8
CADDY_1
 62
256
370
-1
  6
ByLayer
 10
295.680023193359375
 20
8.1800030618906021
 30
0.0
 40
2.2050000354647641
 41
100.0
 71
7
 72
2
  1
Projekt:
  7
CADDY_VECTORFONT1P
 50
0.0
 73
0
 44
1.0
  0
MTEXT
  5
B1
100
AcDbEntity
100
AcDbMText
  8
CADDY_1
 62
256
370
-1
  6
ByLayer
 10
296.2050170898438068
 20
2.9300030618906021
 30
0.0
 40
2.2050000354647641
 41
100.0
 71
7
 72
2
  1
9573\~Magic\~II\~Teleskop
  7
CADDY_VECTORFONT1P
 50
0.0
 73
0
 44
1.0
  0
MTEXT
  5
B2
100
AcDbEntity
100
AcDbMText
  8
CADDY_1
 62
256
370
-1
  6
ByLayer
 10
351.8550415039061932
 20
8.1800030618906021
 30
0.0
 40
2.2050000354647641
 41
100.0
 71
7
 72
2
  1
9573
  7
CADDY_VECTORFONT1P
 50
0.0
 73
0
 44
1.0
  0
MTEXT
  5
B3
100
AcDbEntity
100
AcDbMText
  8
CADDY_1
 62
256
370
-1
  6
ByLayer
 10
11.2349996566772496
 20
25.6100000739097595
 30
0.0
 40
2.5725002586841579
 41
100.0
 71
7
 72
2
  1
1
  7
CADDY_VECTORFONT1P
 50
0.0
 73
0
 44
1.0
  0
MTEXT
  5
B4
100
AcDbEntity
100
AcDbMText
  8
CADDY_1
 62
256
370
-1
  6
ByLayer
 10
408.7650114893913269
 20
25.6100000739097595
 30
0.0
 40
2.5725002586841579
 41
100.0
 71
9
 72
2
  1

  7
CADDY_VECTORFONT1P
 50
0.0
 73
0
 44
1.0
  0
MTEXT
  5
B5
100
AcDbEntity
100
AcDbMText
  8
CADDY_1
 62
256
370
-1
  6
ByLayer
 10
405.6675415039061932
 20
8.1800030618906021
 30
0.0
 40
2.2050000354647641
 41
100.0
 71
7
 72
2
  1

  7
CADDY_VECTORFONT1P
 50
0.0
 73
0
 44
1.0
  0
MTEXT
  5
B6
100
AcDbEntity
100
AcDbMText
  8
CADDY_1
 62
256
370
-1
  6
ByLayer
 10
295.680023193359375
 20
18.6800030618905986
 30
0.0
 40
2.2050000354647641
 41
100.0
 71
7
 72
2
  1

  7
CADDY_VECTORFONT1P
 50
0.0
 73
0
 44
1.0
  0
MTEXT
  5
B7
100
AcDbEntity
100
AcDbMText
  8
CADDY_1
 62
256
370
-1
  6
ByLayer
 10
385.9800415039061932
 20
18.6800030618905986
 30
0.0
 40
2.2050000354647641
 41
100.0
 71
7
 72
2
  1
=
  7
CADDY_VECTORFONT1P
 50
0.0
 73
0
 44
1.0
  0
MTEXT
  5
B8
100
AcDbEntity
100
AcDbMText
  8
CADDY_1
 62
256
370
-1
  6
ByLayer
 10
385.9800415039061932
 20
13.4300030618906003
 30
0.0
 40
2.2050000354647641
 41
100.0
 71
7
 72
2
  1
+
  7
CADDY_VECTORFONT1P
 50
0.0
 73
0
 44
1.0
  0
INSERT
  5
B9
100
AcDbEntity
100
AcDbBlockReference
  8
CADDY_1
 62
256
370
-1
  6
ByLayer
  2
BLK2
 10
0.0
 20
0.0
 30
0.0
  0
LINE
  5
BA
100
AcDbEntity
100
AcDbLine
  8
CADDY_1
 62
256
370
-1
  6
CONTINUOUS
 10
22.875
 20
36.0
 30
0.0
 11
15.0
 21
41.25
 31
0.0
  0
LINE
  5
BB
100
AcDbEntity
100
AcDbLine
  8
CADDY_1
 62
256
370
-1
  6
CONTINUOUS
 10
407.875
 20
276.0
 30
0.0
 11
400.0
 21
281.25
 31
0.0
  0
LINE
  5
BC
100
AcDbEntity
100
AcDbLine
  8
CADDY_1
 62
256
370
-1
  6
CONTINUOUS
 10
400.0
 20
41.25
 30
0.0
 11
407.875
 21
36.0
 31
0.0
  0
MTEXT
  5
BD
100
AcDbEntity
100
AcDbMText
  8
CADDY_1
 62
256
370
-1
  6
ByLayer
 10
168.3525085449219034
 20
268.2562502399086952
 30
0.0
 40
8.2687507197260857
 41
100.0
 71
7
 72
2
  1
Inhaltsverzeichnis
  7
CADDY_VECTORFONT2P
 50
0.0
 73
0
 44
1.0
  0
MTEXT
  5
BE
100
AcDbEntity
100
AcDbMText
  8
CADDY_1
 62
256
370
-1
  6
ByLayer
 10
23.6100006103515589
 20
254.6750001162291142
 30
0.0
 40
3.675000406801701
 41
100.0
 71
7
 72
2
  1
Art\~des\~Dokumentes
  7
CADDY_VECTORFONT1P
 50
0.0
 73
0
 44
1.0
  0
LINE
  5
BF
100
AcDbEntity
100
AcDbLine
  8
CADDY_1
 62
256
370
-1
  6
CONTINUOUS
 10
75.0
 20
261.25
 30
0.0
 11
75.0
 21
41.25
 31
0.0
  0
MTEXT
  5
C0
100
AcDbEntity
100
AcDbMText
  8
CADDY_1
 62
256
370
-1
  6
ByLayer
 10
142.3600006103515909
 20
254.6750001162291142
 30
0.0
 40
3.675000406801701
 41
100.0
 71
7
 72
2
  1
Seiten
  7
CADDY_VECTORFONT1P
 50
0.0
 73
0
 44
1.0
  0
LINE
  5
C1
100
AcDbEntity
100
AcDbLine
  8
CADDY_1
 62
256
370
-1
  6
CONTINUOUS
 10
165.0
 20
261.25
 30
0.0
 11
165.0
 21
41.25
 31
0.0
  0
MTEXT
  5
C2
100
AcDbEntity
100
AcDbMText
  8
CADDY_1
 62
256
370
-1
  6
ByLayer
 10
174.3600158691405966
 20
254.6750001162291142
 30
0.0
 40
3.675000406801701
 41
100.0
 71
7
 72
2
  1
Beschreibung
  7
CADDY_VECTORFONT1P
 50
0.0
 73
0
 44
1.0
  0
MTEXT
  5
C3
100
AcDbEntity
100
AcDbMText
  8
CADDY_1
 62
256
370
-1
  6
ByLayer
 10
370.110015869140625
 20
254.6750001162291142
 30
0.0
 40
3.675000406801701
 41
100.0
 71
7
 72
2
  1
Bearbeiter
  7
CADDY_VECTORFONT1P
 50
0.0
 73
0
 44
1.0
  0
LINE
  5
C4
100
AcDbEntity
100
AcDbLine
  8
CADDY_1
 62
256
370
-1
  6
CONTINUOUS
 10
360.0
 20
261.25
 30
0.0
 11
360.0
 21
41.25
 31
0.0
  0
MTEXT
  5
C5
100
AcDbEntity
100
AcDbMText
  8
CADDY_1
 62
256
370
-1
  6
ByLayer
 10
322.860015869140625
 20
254.6750001162291142
 30
0.0
 40
3.675000406801701
 41
100.0
 71
7
 72
2
  1
Revisionsdatum
  7
CADDY_VECTORFONT1P
 50
0.0
 73
0
 44
1.0
  0
LINE
  5
C6
100
AcDbEntity
100
AcDbLine
  8
CADDY_1
 62
256
370
-1
  6
CONTINUOUS
 10
315.0
 20
261.25
 30
0.0
 11
315.0
 21
41.25
 31
0.0
  0
MTEXT
  5
C7
100
AcDbEntity
100
AcDbMText
  8
CADDY_1
 62
256
370
-1
  6
ByLayer
 10
11.2349996566772496
 20
25.6100000739097595
 30
0.0
 40
2.5725002586841579
 41
100.0
 71
7
 72
2
  1
1
  7
CADDY_VECTORFONT1P
 50
0.0
 73
0
 44
1.0
  0
INSERT
  5
C8
100
AcDbEntity
100
AcDbBlockReference
  8
CADDY_1
 62
256
370
-1
  6
ByLayer
  2
BLK3
 10
0.0
 20
0.0
 30
0.0
  0
LINE
  5
C9
100
AcDbEntity
100
AcDbLine
  8
CADDY_1
 62
256
370
-1
  6
CONTINUOUS
 10
15.0
 20
261.25
 30
0.0
 11
399.9998779296875
 21
261.25
 31
0.0
  0
LINE
  5
CA
100
AcDbEntity
100
AcDbLine
  8
CADDY_1
 62
256
370
-1
  6
CONTINUOUS
 10
15.0
 20
251.25
 30
0.0
 11
399.9998779296875
 21
251.25
 31
0.0
  0
LINE
  5
CB
100
AcDbEntity
100
AcDbLine
  8
CADDY_1
 62
256
370
-1
  6
CONTINUOUS
 10
15.0
 20
241.25
 30
0.0
 11
399.9998779296875
 21
241.25
 31
0.0
  0
LINE
  5
CC
100
AcDbEntity
100
AcDbLine
  8
CADDY_1
 62
256
370
-1
  6
CONTINUOUS
 10
15.0
 20
231.25
 30
0.0
 11
399.9998779296875
 21
231.25
 31
0.0
  0
LINE
  5
CD
100
AcDbEntity
100
AcDbLine
  8
CADDY_1
 62
256
370
-1
  6
CONTINUOUS
 10
15.0
 20
221.25
 30
0.0
 11
399.9998779296875
 21
221.25
 31
0.0
  0
LINE
  5
CE
100
AcDbEntity
100
AcDbLine
  8
CADDY_1
 62
256
370
-1
  6
CONTINUOUS
 10
15.0
 20
211.25
 30
0.0
 11
399.9998779296875
 21
211.25
 31
0.0
  0
LINE
  5
CF
100
AcDbEntity
100
AcDbLine
  8
CADDY_1
 62
256
370
-1
  6
CONTINUOUS
 10
15.0
 20
201.25
 30
0.0
 11
399.9998779296875
 21
201.25
 31
0.0
  0
LINE
  5
D0
100
AcDbEntity
100
AcDbLine
  8
CADDY_1
 62
256
370
-1
  6
CONTINUOUS
 10
15.0
 20
191.25
 30
0.0
 11
399.9998779296875
 21
191.25
 31
0.0
  0
LINE
  5
D1
100
AcDbEntity
100
AcDbLine
  8
CADDY_1
 62
256
370
-1
  6
CONTINUOUS
 10
15.0
 20
181.25
 30
0.0
 11
399.9998779296875
 21
181.25
 31
0.0
  0
LINE
  5
D2
100
AcDbEntity
100
AcDbLine
  8
CADDY_1
 62
256
370
-1
  6
CONTINUOUS
 10
15.0
 20
171.25
 30
0.0
 11
399.9998779296875
 21
171.25
 31
0.0
  0
LINE
  5
D3
100
AcDbEntity
100
AcDbLine
  8
CADDY_1
 62
256
370
-1
  6
CONTINUOUS
 10
15.0
 20
161.25
 30
0.0
 11
399.9998779296875
 21
161.25
 31
0.0
  0
LINE
  5
D4
100
AcDbEntity
100
AcDbLine
  8
CADDY_1
 62
256
370
-1
  6
CONTINUOUS
 10
15.0
 20
151.25
 30
0.0
 11
399.9998779296875
 21
151.25
 31
0.0
  0
LINE
  5
D5
100
AcDbEntity
100
AcDbLine
  8
CADDY_1
 62
256
370
-1
  6
CONTINUOUS
 10
15.0
 20
141.25
 30
0.0
 11
399.9998779296875
 21
141.25
 31
0.0
  0
LINE
  5
D6
100
AcDbEntity
100
AcDbLine
  8
CADDY_1
 62
256
370
-1
  6
CONTINUOUS
 10
15.0
 20
131.25
 30
0.0
 11
399.9998779296875
 21
131.25
 31
0.0
  0
LINE
  5
D7
100
AcDbEntity
100
AcDbLine
  8
CADDY_1
 62
256
370
-1
  6
CONTINUOUS
 10
15.0
 20
121.25
 30
0.0
 11
399.9998779296875
 21
121.25
 31
0.0
  0
LINE
  5
D8
100
AcDbEntity
100
AcDbLine
  8
CADDY_1
 62
256
370
-1
  6
CONTINUOUS
 10
15.0
 20
111.25
 30
0.0
 11
399.9998779296875
 21
111.25
 31
0.0
  0
LINE
  5
D9
100
AcDbEntity
100
AcDbLine
  8
CADDY_1
 62
256
370
-1
  6
CONTINUOUS
 10
15.0
 20
101.25
 30
0.0
 11
399.9998779296875
 21
101.25
 31
0.0
  0
LINE
  5
DA
100
AcDbEntity
100
AcDbLine
  8
CADDY_1
 62
256
370
-1
  6
CONTINUOUS
 10
15.0
 20
91.25
 30
0.0
 11
399.9998779296875
 21
91.25
 31
0.0
  0
LINE
  5
DB
100
AcDbEntity
100
AcDbLine
  8
CADDY_1
 62
256
370
-1
  6
CONTINUOUS
 10
15.0
 20
81.25
 30
0.0
 11
399.9998779296875
 21
81.25
 31
0.0
  0
LINE
  5
DC
100
AcDbEntity
100
AcDbLine
  8
CADDY_1
 62
256
370
-1
  6
CONTINUOUS
 10
15.0
 20
71.25
 30
0.0
 11
399.9998779296875
 21
71.25
 31
0.0
  0
LINE
  5
DD
100
AcDbEntity
100
AcDbLine
  8
CADDY_1
 62
256
370
-1
  6
CONTINUOUS
 10
15.0
 20
61.25
 30
0.0
 11
399.9998779296875
 21
61.25
 31
0.0
  0
LINE
  5
DE
100
AcDbEntity
100
AcDbLine
  8
CADDY_1
 62
256
370
-1
  6
CONTINUOUS
 10
15.0
 20
51.25
 30
0.0
 11
399.9998779296875
 21
51.25
 31
0.0
  0
LINE
  5
DF
100
AcDbEntity
100
AcDbLine
  8
CADDY_1
 62
256
370
-1
  6
CONTINUOUS
 10
407.875
 20
276.0
 30
0.0
 11
407.875
 21
36.0
 31
0.0
  0
LINE
  5
E0
100
AcDbEntity
100
AcDbLine
  8
CADDY_1
 62
256
370
-1
  6
CONTINUOUS
 10
407.875
 20
36.0
 30
0.0
 11
22.875
 21
36.0
 31
0.0
  0
LINE
  5
E1
100
AcDbEntity
100
AcDbLine
  8
CADDY_1
 62
256
370
-1
  6
CONTINUOUS
 10
135.0
 20
261.25
 30
0.0
 11
135.0
 21
41.25
 31
0.0
  0
MTEXT
  5
E2
100
AcDbEntity
100
AcDbMText
  8
CADDY_1
 62
256
370
-1
  6
ByLayer
 10
82.3600082397460938
 20
254.6750001162291142
 30
0.0
 40
3.675000406801701
 41
100.0
 71
7
 72
2
  1
=\~Anlage
  7
CADDY_VECTORFONT1P
 50
0.0
 73
0
 44
1.0
  0
LINE
  5
E3
100
AcDbEntity
100
AcDbLine
  8
CADDY_1
 62
256
370
-1
  6
CONTINUOUS
 10
105.0
 20
261.25
 30
0.0
 11
105.0
 21
41.25
 31
0.0
  0
MTEXT
  5
E4
100
AcDbEntity
100
AcDbMText
  8
CADDY_1
 62
256
370
-1
  6
ByLayer
 10
112.3600082397460938
 20
254.6750001162291142
 30
0.0
 40
3.675000406801701
 41
100.0
 71
7
 72
2
  1
+\~Ort
  7
CADDY_VECTORFONT1P
 50
0.0
 73
0
 44
1.0
  0
ENDBLK
  5
E5
100
AcDbEntity
  8
0
100
AcDbBlockEnd
  0
BLOCK
  5
E6
100
AcDbEntity
  8
0
100
AcDbBlockBegin
  2
BLK2
 70
0
 10
0.0
 20
0.0
 30
0.0
  3
BLK2
  1

  0
LINE
  5
E7
100
AcDbEntity
100
AcDbLine
  8
CADDY_1
 62
256
370
-1
  6
CONTINUOUS
 10
15.0
 20
281.25
 30
0.0
 11
399.9998779296875
 21
281.25
 31
0.0
  0
LINE
  5
E8
100
AcDbEntity
100
AcDbLine
  8
CADDY_1
 62
256
370
-1
  6
CONTINUOUS
 10
15.0
 20
281.25
 30
0.0
 11
15.0
 21
41.25
 31
0.0
  0
LINE
  5
E9
100
AcDbEntity
100
AcDbLine
  8
CADDY_1
 62
256
370
-1
  6
CONTINUOUS
 10
15.0
 20
41.25
 30
0.0
 11
399.9998779296875
 21
41.25
 31
0.0
  0
LINE
  5
EA
100
AcDbEntity
100
AcDbLine
  8
CADDY_1
 62
256
370
-1
  6
CONTINUOUS
 10
399.9998779296875
 20
41.25
 30
0.0
 11
399.9998779296875
 21
281.25
 31
0.0
  0
ENDBLK
  5
EB
100
AcDbEntity
  8
0
100
AcDbBlockEnd
  0
BLOCK
  5
EC
100
AcDbEntity
  8
0
100
AcDbBlockBegin
  2
BLK3
 70
0
 10
0.0
 20
0.0
 30
0.0
  3
BLK3
  1

  0
INSERT
  5
ED
100
AcDbEntity
100
AcDbBlockReference
  8
CADDY_1
 62
256
370
-1
  6
ByLayer
  2
BLK4
 10
0.0
 20
0.0
 30
0.0
  0
LINE
  5
EE
100
AcDbEntity
100
AcDbLine
  8
CADDY_2
 62
8
370
-1
  6
CONTINUOUS
 10
199.1481475830078125
 20
9.125
 30
0.0
 11
205.3643798828125
 21
9.125
 31
0.0
  0
LINE
  5
EF
100
AcDbEntity
100
AcDbLine
  8
CADDY_2
 62
8
370
-1
  6
CONTINUOUS
 10
199.1481475830078125
 20
9.2244873046875
 30
0.0
 11
205.660400390625
 21
9.2244873046875
 31
0.0
  0
LINE
  5
F0
100
AcDbEntity
100
AcDbLine
  8
CADDY_2
 62
8
370
-1
  6
CONTINUOUS
 10
199.0741577148438068
 20
9.3239898681640625
 30
0.0
 11
205.9564056396484091
 21
9.3239898681640625
 31
0.0
  0
LINE
  5
F1
100
AcDbEntity
100
AcDbLine
  8
CADDY_2
 62
8
370
-1
  6
CONTINUOUS
 10
198.7781372070311932
 20
9.423492431640625
 30
0.0
 11
198.7781372070311932
 21
9.423492431640625
 31
0.0
  0
LINE
  5
F2
100
AcDbEntity
100
AcDbLine
  8
CADDY_2
 62
8
370
-1
  6
CONTINUOUS
 10
204.6983642578125
 20
9.423492431640625
 30
0.0
 11
206.3264312744140909
 21
9.423492431640625
 31
0.0
  0
LINE
  5
F3
100
AcDbEntity
100
AcDbLine
  8
CADDY_2
 62
8
370
-1
  6
CONTINUOUS
 10
198.7781372070311932
 20
9.5229949951171875
 30
0.0
 11
198.7781372070311932
 21
9.5229949951171875
 31
0.0
  0
LINE
  5
F4
100
AcDbEntity
100
AcDbLine
  8
CADDY_2
 62
8
370
-1
  6
CONTINUOUS
 10
204.994384765625
 20
9.5229949951171875
 30
0.0
 11
206.4744262695311932
 21
9.5229949951171875
 31
0.0
  0
LINE
  5
F5
100
AcDbEntity
100
AcDbLine
  8
CADDY_2
 62
8
370
-1
  6
CONTINUOUS
 10
198.7781372070311932
 20
9.6224822998046875
 30
0.0
 11
198.7781372070311932
 21
9.6224822998046875
 31
0.0
  0
LINE
  5
F6
100
AcDbEntity
100
AcDbLine
  8
CADDY_2
 62
8
370
-1
  6
CONTINUOUS
 10
205.660400390625
 20
9.6224822998046875
 30
0.0
 11
206.6964263916015909
 21
9.6224822998046875
 31
0.0
  0
LINE
  5
F7
100
AcDbEntity
100
AcDbLine
  8
CADDY_2
 62
8
370
-1
  6
CONTINUOUS
 10
198.7781372070311932
 20
9.7219696044921875
 30
0.0
 11
198.7781372070311932
 21
9.7219696044921875
 31
0.0
  0
LINE
  5
F8
100
AcDbEntity
100
AcDbLine
  8
CADDY_2
 62
8
370
-1
  6
CONTINUOUS
 10
205.7344055175780966
 20
9.7219696044921875
 30
0.0
 11
206.7704315185546875
 21
9.7219696044921875
 31
0.0
  0
LINE
  5
F9
100
AcDbEntity
100
AcDbLine
  8
CADDY_2
 62
8
370
-1
  6
CONTINUOUS
 10
198.7781372070311932
 20
9.82147216796875
 30
0.0
 11
198.7781372070311932
 21
9.82147216796875
 31
0.0
  0
LINE
  5
FA
100
AcDbEntity
100
AcDbLine
  8
CADDY_2
 62
8
370
-1
  6
CONTINUOUS
 10
206.0304107666015909
 20
9.82147216796875
 30
0.0
 11
206.9924468994140909
 21
9.82147216796875
 31
0.0
  0
LINE
  5
FB
100
AcDbEntity
100
AcDbLine
  8
CADDY_2
 62
8
370
-1
  6
CONTINUOUS
 10
198.7781372070311932
 20
9.9209747314453125
 30
0.0
 11
198.7781372070311932
 21
9.9209747314453125
 31
0.0
  0
LINE
  5
FC
100
AcDbEntity
100
AcDbLine
  8
CADDY_2
 62
8
370
-1
  6
CONTINUOUS
 10
206.1044158935546875
 20
9.9209747314453125
 30
0.0
 11
206.9924468994140909
 21
9.9209747314453125
 31
0.0
  0
LINE
  5
FD
100
AcDbEntity
100
AcDbLine
  8
CADDY_2
 62
8
370
-1
  6
CONTINUOUS
 10
198.7781372070311932
 20
10.0204620361328107
 30
0.0
 11
198.7781372070311932
 21
10.0204620361328107
 31
0.0
  0
LINE
  5
FE
100
AcDbEntity
100
AcDbLine
  8
CADDY_2
 62
8
370
-1
  6
CONTINUOUS
 10
206.3264312744140909
 20
10.0204620361328107
 30
0.0
 11
207.1404571533203125
 21
10.0204620361328107
 31
0.0
  0
LINE
  5
FF
100
AcDbEntity
100
AcDbLine
  8
CADDY_2
 62
8
370
-1
  6
CONTINUOUS
 10
198.7781372070311932
 20
10.1199645996093803
 30
0.0
 11
198.7781372070311932
 21
10.1199645996093803
 31
0.0
  0
LINE
  5
100
100
AcDbEntity
100
AcDbLine
  8
CADDY_2
 62
8
370
-1
  6
CONTINUOUS
 10
206.4744262695311932
 20
10.1199645996093803
 30
0.0
 11
207.2884521484375
 21
10.1199645996093803
 31
0.0
  0
LINE
  5
101
100
AcDbEntity
100
AcDbLine
  8
CADDY_2
 62
8
370
-1
  6
CONTINUOUS
 10
198.7781372070311932
 20
10.2194519042968803
 30
0.0
 11
198.7781372070311932
 21
10.2194519042968803
 31
0.0
  0
LINE
  5
102
100
AcDbEntity
100
AcDbLine
  8
CADDY_2
 62
8
370
-1
  6
CONTINUOUS
 10
206.5484161376953125
 20
10.2194519042968803
 30
0.0
 11
207.2884521484375
 21
10.2194519042968803
 31
0.0
  0
LINE
  5
103
100
AcDbEntity
100
AcDbLine
  8
CADDY_2
 62
8
370
-1
  6
CONTINUOUS
 10
209.8785552978515909
 20
10.2194519042968803
 30
0.0
 11
210.0265655517578125
 21
10.2194519042968803
 31
0.0
  0
LINE
  5
104
100
AcDbEntity
100
AcDbLine
  8
CADDY_2
 62
8
370
-1
  6
CONTINUOUS
 10
214.6147003173828125
 20
10.2194519042968803
 30
0.0
 11
214.6147003173828125
 21
10.2194519042968803
 31
0.0
  0
LINE
  5
105
100
AcDbEntity
100
AcDbLine
  8
CADDY_2
 62
8
370
-1
  6
CONTINUOUS
 10
215.8727416992188068
 20
10.2194519042968803
 30
0.0
 11
215.8727416992188068
 21
10.2194519042968803
 31
0.0
  0
LINE
  5
106
100
AcDbEntity
100
AcDbLine
  8
CADDY_2
 62
8
370
-1
  6
CONTINUOUS
 10
198.7781372070311932
 20
10.3189544677734393
 30
0.0
 11
204.3283386230469034
 21
10.3189544677734393
 31
0.0
  0
LINE
  5
107
100
AcDbEntity
100
AcDbLine
  8
CADDY_2
 62
8
370
-1
  6
CONTINUOUS
 10
206.6964263916015909
 20
10.3189544677734393
 30
0.0
 11
207.4364624023438068
 21
10.3189544677734393
 31
0.0
  0
LINE
  5
108
100
AcDbEntity
100
AcDbLine
  8
CADDY_2
 62
8
370
-1
  6
CONTINUOUS
 10
209.3605346679688068
 20
10.3189544677734393
 30
0.0
 11
210.4705657958984091
 21
10.3189544677734393
 31
0.0
  0
LINE
  5
109
100
AcDbEntity
100
AcDbLine
  8
CADDY_2
 62
8
370
-1
  6
CONTINUOUS
 10
211.3585968017578125
 20
10.3189544677734393
 30
0.0
 11
211.8765869140625
 21
10.3189544677734393
 31
0.0
  0
LINE
  5
10A
100
AcDbEntity
100
AcDbLine
  8
CADDY_2
 62
8
370
-1
  6
CONTINUOUS
 10
213.1346435546875
 20
10.3189544677734393
 30
0.0
 11
213.5786590576171875
 21
10.3189544677734393
 31
0.0
  0
LINE
  5
10B
100
AcDbEntity
100
AcDbLine
  8
CADDY_2
 62
8
370
-1
  6
CONTINUOUS
 10
214.1706848144530966
 20
10.3189544677734393
 30
0.0
 11
216.2427520751953125
 21
10.3189544677734393
 31
0.0
  0
LINE
  5
10C
100
AcDbEntity
100
AcDbLine
  8
CADDY_2
 62
8
370
-1
  6
CONTINUOUS
 10
216.8347930908203125
 20
10.3189544677734393
 30
0.0
 11
218.6848449707030966
 21
10.3189544677734393
 31
0.0
  0
LINE
  5
10D
100
AcDbEntity
100
AcDbLine
  8
CADDY_2
 62
8
370
-1
  6
CONTINUOUS
 10
219.4248809814453125
 20
10.3189544677734393
 30
0.0
 11
219.9428863525390909
 21
10.3189544677734393
 31
0.0
  0
LINE
  5
10E
100
AcDbEntity
100
AcDbLine
  8
CADDY_2
 62
8
370
-1
  6
CONTINUOUS
 10
221.4969482421875
 20
10.3189544677734393
 30
0.0
 11
221.9409790039061932
 21
10.3189544677734393
 31
0.0
  0
LINE
  5
10F
100
AcDbEntity
100
AcDbLine
  8
CADDY_2
 62
8
370
-1
  6
CONTINUOUS
 10
198.7781372070311932
 20
10.41845703125
 30
0.0
 11
204.7723693847655966
 21
10.41845703125
 31
0.0
  0
LINE
  5
110
100
AcDbEntity
100
AcDbLine
  8
CADDY_2
 62
8
370
-1
  6
CONTINUOUS
 10
206.6964263916015909
 20
10.41845703125
 30
0.0
 11
207.4364624023438068
 21
10.41845703125
 31
0.0
  0
LINE
  5
111
100
AcDbEntity
100
AcDbLine
  8
CADDY_2
 62
8
370
-1
  6
CONTINUOUS
 10
209.2125244140625
 20
10.41845703125
 30
0.0
 11
209.9525604248046875
 21
10.41845703125
 31
0.0
  0
LINE
  5
112
100
AcDbEntity
100
AcDbLine
  8
CADDY_2
 62
8
370
-1
  6
CONTINUOUS
 10
210.1005706787109091
 20
10.41845703125
 30
0.0
 11
210.6185760498046875
 21
10.41845703125
 31
0.0
  0
LINE
  5
113
100
AcDbEntity
100
AcDbLine
  8
CADDY_2
 62
8
370
-1
  6
CONTINUOUS
 10
211.6546173095703125
 20
10.41845703125
 30
0.0
 11
211.8025817871094034
 21
10.41845703125
 31
0.0
  0
LINE
  5
114
100
AcDbEntity
100
AcDbLine
  8
CADDY_2
 62
8
370
-1
  6
CONTINUOUS
 10
213.0606384277344034
 20
10.41845703125
 30
0.0
 11
213.5786590576171875
 21
10.41845703125
 31
0.0
  0
LINE
  5
115
100
AcDbEntity
100
AcDbLine
  8
CADDY_2
 62
8
370
-1
  6
CONTINUOUS
 10
214.1706848144530966
 20
10.41845703125
 30
0.0
 11
216.2427520751953125
 21
10.41845703125
 31
0.0
  0
LINE
  5
116
100
AcDbEntity
100
AcDbLine
  8
CADDY_2
 62
8
370
-1
  6
CONTINUOUS
 10
216.8347930908203125
 20
10.41845703125
 30
0.0
 11
218.0188293457030966
 21
10.41845703125
 31
0.0
  0
LINE
  5
117
100
AcDbEntity
100
AcDbLine
  8
CADDY_2
 62
8
370
-1
  6
CONTINUOUS
 10
218.2408447265625
 20
10.41845703125
 30
0.0
 11
218.8328552246094034
 21
10.41845703125
 31
0.0
  0
LINE
  5
118
100
AcDbEntity
100
AcDbLine
  8
CADDY_2
 62
8
370
-1
  6
CONTINUOUS
 10
219.7209014892578125
 20
10.41845703125
 30
0.0
 11
219.9428863525390909
 21
10.41845703125
 31
0.0
  0
LINE
  5
119
100
AcDbEntity
100
AcDbLine
  8
CADDY_2
 62
8
370
-1
  6
CONTINUOUS
 10
221.4969482421875
 20
10.41845703125
 30
0.0
 11
221.9409790039061932
 21
10.41845703125
 31
0.0
  0
LINE
  5
11A
100
AcDbEntity
100
AcDbLine
  8
CADDY_2
 62
8
370
-1
  6
CONTINUOUS
 10
204.5503540039061932
 20
10.5179443359375
 30
0.0
 11
205.1423645019530966
 21
10.5179443359375
 31
0.0
  0
LINE
  5
11B
100
AcDbEntity
100
AcDbLine
  8
CADDY_2
 62
8
370
-1
  6
CONTINUOUS
 10
206.8444366455078125
 20
10.5179443359375
 30
0.0
 11
207.5104675292969034
 21
10.5179443359375
 31
0.0
  0
LINE
  5
11C
100
AcDbEntity
100
AcDbLine
  8
CADDY_2
 62
8
370
-1
  6
CONTINUOUS
 10
210.3225708007811932
 20
10.5179443359375
 30
0.0
 11
210.8405914306640909
 21
10.5179443359375
 31
0.0
  0
LINE
  5
11D
100
AcDbEntity
100
AcDbLine
  8
CADDY_2
 62
8
370
-1
  6
CONTINUOUS
 10
211.7285766601561932
 20
10.5179443359375
 30
0.0
 11
211.8025817871094034
 21
10.5179443359375
 31
0.0
  0
LINE
  5
11E
100
AcDbEntity
100
AcDbLine
  8
CADDY_2
 62
8
370
-1
  6
CONTINUOUS
 10
213.4306488037109091
 20
10.5179443359375
 30
0.0
 11
213.5786590576171875
 21
10.5179443359375
 31
0.0
  0
LINE
  5
11F
100
AcDbEntity
100
AcDbLine
  8
CADDY_2
 62
8
370
-1
  6
CONTINUOUS
 10
216.1687469482421875
 20
10.5179443359375
 30
0.0
 11
216.2427520751953125
 21
10.5179443359375
 31
0.0
  0
LINE
  5
120
100
AcDbEntity
100
AcDbLine
  8
CADDY_2
 62
8
370
-1
  6
CONTINUOUS
 10
218.61083984375
 20
10.5179443359375
 30
0.0
 11
218.9068603515625
 21
10.5179443359375
 31
0.0
  0
LINE
  5
121
100
AcDbEntity
100
AcDbLine
  8
CADDY_2
 62
8
370
-1
  6
CONTINUOUS
 10
219.8688812255859091
 20
10.5179443359375
 30
0.0
 11
220.0168914794921875
 21
10.5179443359375
 31
0.0
  0
LINE
  5
122
100
AcDbEntity
100
AcDbLine
  8
CADDY_2
 62
8
370
-1
  6
CONTINUOUS
 10
221.2749481201171875
 20
10.5179443359375
 30
0.0
 11
221.2749481201171875
 21
10.5179443359375
 31
0.0
  0
LINE
  5
123
100
AcDbEntity
100
AcDbLine
  8
CADDY_2
 62
8
370
-1
  6
CONTINUOUS
 10
221.8669738769530966
 20
10.5179443359375
 30
0.0
 11
221.9409790039061932
 21
10.5179443359375
 31
0.0
  0
LINE
  5
124
100
AcDbEntity
100
AcDbLine
  8
CADDY_2
 62
8
370
-1
  6
CONTINUOUS
 10
204.8463745117188068
 20
10.6174468994140607
 30
0.0
 11
205.2903747558594034
 21
10.6174468994140607
 31
0.0
  0
LINE
  5
125
100
AcDbEntity
100
AcDbLine
  8
CADDY_2
 62
8
370
-1
  6
CONTINUOUS
 10
206.8444366455078125
 20
10.6174468994140607
 30
0.0
 11
207.5104675292969034
 21
10.6174468994140607
 31
0.0
  0
LINE
  5
126
100
AcDbEntity
100
AcDbLine
  8
CADDY_2
 62
8
370
-1
  6
CONTINUOUS
 10
210.4705657958984091
 20
10.6174468994140607
 30
0.0
 11
210.8405914306640909
 21
10.6174468994140607
 31
0.0
  0
LINE
  5
127
100
AcDbEntity
100
AcDbLine
  8
CADDY_2
 62
8
370
-1
  6
CONTINUOUS
 10
211.7285766601561932
 20
10.6174468994140607
 30
0.0
 11
211.8025817871094034
 21
10.6174468994140607
 31
0.0
  0
LINE
  5
128
100
AcDbEntity
100
AcDbLine
  8
CADDY_2
 62
8
370
-1
  6
CONTINUOUS
 10
213.4306488037109091
 20
10.6174468994140607
 30
0.0
 11
213.5786590576171875
 21
10.6174468994140607
 31
0.0
  0
LINE
  5
129
100
AcDbEntity
100
AcDbLine
  8
CADDY_2
 62
8
370
-1
  6
CONTINUOUS
 10
216.1687469482421875
 20
10.6174468994140607
 30
0.0
 11
216.2427520751953125
 21
10.6174468994140607
 31
0.0
  0
LINE
  5
12A
100
AcDbEntity
100
AcDbLine
  8
CADDY_2
 62
8
370
-1
  6
CONTINUOUS
 10
218.6848449707030966
 20
10.6174468994140607
 30
0.0
 11
218.9808654785155966
 21
10.6174468994140607
 31
0.0
  0
LINE
  5
12B
100
AcDbEntity
100
AcDbLine
  8
CADDY_2
 62
8
370
-1
  6
CONTINUOUS
 10
219.9428863525390909
 20
10.6174468994140607
 30
0.0
 11
220.0168914794921875
 21
10.6174468994140607
 31
0.0
  0
LINE
  5
12C
100
AcDbEntity
100
AcDbLine
  8
CADDY_2
 62
8
370
-1
  6
CONTINUOUS
 10
221.8669738769530966
 20
10.6174468994140607
 30
0.0
 11
221.8669738769530966
 21
10.6174468994140607
 31
0.0
  0
LINE
  5
12D
100
AcDbEntity
100
AcDbLine
  8
CADDY_2
 62
8
370
-1
  6
CONTINUOUS
 10
205.1423645019530966
 20
10.7169342041015607
 30
0.0
 11
205.5123901367188068
 21
10.7169342041015607
 31
0.0
  0
LINE
  5
12E
100
AcDbEntity
100
AcDbLine
  8
CADDY_2
 62
8
370
-1
  6
CONTINUOUS
 10
206.9184417724609091
 20
10.7169342041015607
 30
0.0
 11
207.58447265625
 21
10.7169342041015607
 31
0.0
  0
LINE
  5
12F
100
AcDbEntity
100
AcDbLine
  8
CADDY_2
 62
8
370
-1
  6
CONTINUOUS
 10
210.6185760498046875
 20
10.7169342041015607
 30
0.0
 11
210.8405914306640909
 21
10.7169342041015607
 31
0.0
  0
LINE
  5
130
100
AcDbEntity
100
AcDbLine
  8
CADDY_2
 62
8
370
-1
  6
CONTINUOUS
 10
211.7285766601561932
 20
10.7169342041015607
 30
0.0
 11
211.8025817871094034
 21
10.7169342041015607
 31
0.0
  0
LINE
  5
131
100
AcDbEntity
100
AcDbLine
  8
CADDY_2
 62
8
370
-1
  6
CONTINUOUS
 10
213.4306488037109091
 20
10.7169342041015607
 30
0.0
 11
213.5786590576171875
 21
10.7169342041015607
 31
0.0
  0
LINE
  5
132
100
AcDbEntity
100
AcDbLine
  8
CADDY_2
 62
8
370
-1
  6
CONTINUOUS
 10
218.8328552246094034
 20
10.7169342041015607
 30
0.0
 11
219.0548706054688068
 21
10.7169342041015607
 31
0.0
  0
LINE
  5
133
100
AcDbEntity
100
AcDbLine
  8
CADDY_2
 62
8
370
-1
  6
CONTINUOUS
 10
219.9428863525390909
 20
10.7169342041015607
 30
0.0
 11
220.0908966064453125
 21
10.7169342041015607
 31
0.0
  0
LINE
  5
134
100
AcDbEntity
100
AcDbLine
  8
CADDY_2
 62
8
370
-1
  6
CONTINUOUS
 10
221.79296875
 20
10.7169342041015607
 30
0.0
 11
221.79296875
 21
10.7169342041015607
 31
0.0
  0
LINE
  5
135
100
AcDbEntity
100
AcDbLine
  8
CADDY_2
 62
8
370
-1
  6
CONTINUOUS
 10
205.4383850097655966
 20
10.8164367675781197
 30
0.0
 11
205.660400390625
 21
10.8164367675781197
 31
0.0
  0
LINE
  5
136
100
AcDbEntity
100
AcDbLine
  8
CADDY_2
 62
8
370
-1
  6
CONTINUOUS
 10
206.9924468994140909
 20
10.8164367675781197
 30
0.0
 11
207.6584777832030966
 21
10.8164367675781197
 31
0.0
  0
LINE
  5
137
100
AcDbEntity
100
AcDbLine
  8
CADDY_2
 62
8
370
-1
  6
CONTINUOUS
 10
210.7665863037109091
 20
10.8164367675781197
 30
0.0
 11
210.8405914306640909
 21
10.8164367675781197
 31
0.0
  0
LINE
  5
138
100
AcDbEntity
100
AcDbLine
  8
CADDY_2
 62
8
370
-1
  6
CONTINUOUS
 10
211.7285766601561932
 20
10.8164367675781197
 30
0.0
 11
211.8025817871094034
 21
10.8164367675781197
 31
0.0
  0
LINE
  5
139
100
AcDbEntity
100
AcDbLine
  8
CADDY_2
 62
8
370
-1
  6
CONTINUOUS
 10
213.4306488037109091
 20
10.8164367675781197
 30
0.0
 11
213.5786590576171875
 21
10.8164367675781197
 31
0.0
  0
LINE
  5
13A
100
AcDbEntity
100
AcDbLine
  8
CADDY_2
 62
8
370
-1
  6
CONTINUOUS
 10
218.9068603515625
 20
10.8164367675781197
 30
0.0
 11
219.0548706054688068
 21
10.8164367675781197
 31
0.0
  0
LINE
  5
13B
100
AcDbEntity
100
AcDbLine
  8
CADDY_2
 62
8
370
-1
  6
CONTINUOUS
 10
219.9428863525390909
 20
10.8164367675781197
 30
0.0
 11
220.0908966064453125
 21
10.8164367675781197
 31
0.0
  0
LINE
  5
13C
100
AcDbEntity
100
AcDbLine
  8
CADDY_2
 62
8
370
-1
  6
CONTINUOUS
 10
221.7189636230469034
 20
10.8164367675781197
 30
0.0
 11
221.79296875
 21
10.8164367675781197
 31
0.0
  0
LINE
  5
13D
100
AcDbEntity
100
AcDbLine
  8
CADDY_2
 62
8
370
-1
  6
CONTINUOUS
 10
205.5123901367188068
 20
10.9159240722656197
 30
0.0
 11
205.7344055175780966
 21
10.9159240722656197
 31
0.0
  0
LINE
  5
13E
100
AcDbEntity
100
AcDbLine
  8
CADDY_2
 62
8
370
-1
  6
CONTINUOUS
 10
207.0664520263671875
 20
10.9159240722656197
 30
0.0
 11
207.6584777832030966
 21
10.9159240722656197
 31
0.0
  0
LINE
  5
13F
100
AcDbEntity
100
AcDbLine
  8
CADDY_2
 62
8
370
-1
  6
CONTINUOUS
 10
210.7665863037109091
 20
10.9159240722656197
 30
0.0
 11
210.8405914306640909
 21
10.9159240722656197
 31
0.0
  0
LINE
  5
140
100
AcDbEntity
100
AcDbLine
  8
CADDY_2
 62
8
370
-1
  6
CONTINUOUS
 10
211.7285766601561932
 20
10.9159240722656197
 30
0.0
 11
211.8025817871094034
 21
10.9159240722656197
 31
0.0
  0
LINE
  5
141
100
AcDbEntity
100
AcDbLine
  8
CADDY_2
 62
8
370
-1
  6
CONTINUOUS
 10
213.4306488037109091
 20
10.9159240722656197
 30
0.0
 11
213.5786590576171875
 21
10.9159240722656197
 31
0.0
  0
LINE
  5
142
100
AcDbEntity
100
AcDbLine
  8
CADDY_2
 62
8
370
-1
  6
CONTINUOUS
 10
214.6147003173828125
 20
10.9159240722656197
 30
0.0
 11
214.6886901855469034
 21
10.9159240722656197
 31
0.0
  0
LINE
  5
143
100
AcDbEntity
100
AcDbLine
  8
CADDY_2
 62
8
370
-1
  6
CONTINUOUS
 10
217.2047882080078125
 20
10.9159240722656197
 30
0.0
 11
217.3527984619140909
 21
10.9159240722656197
 31
0.0
  0
LINE
  5
144
100
AcDbEntity
100
AcDbLine
  8
CADDY_2
 62
8
370
-1
  6
CONTINUOUS
 10
218.9068603515625
 20
10.9159240722656197
 30
0.0
 11
219.1288604736328125
 21
10.9159240722656197
 31
0.0
  0
LINE
  5
145
100
AcDbEntity
100
AcDbLine
  8
CADDY_2
 62
8
370
-1
  6
CONTINUOUS
 10
220.0168914794921875
 20
10.9159240722656197
 30
0.0
 11
220.1649017333984091
 21
10.9159240722656197
 31
0.0
  0
LINE
  5
146
100
AcDbEntity
100
AcDbLine
  8
CADDY_2
 62
8
370
-1
  6
CONTINUOUS
 10
221.1269378662109091
 20
10.9159240722656197
 30
0.0
 11
221.1269378662109091
 21
10.9159240722656197
 31
0.0
  0
LINE
  5
147
100
AcDbEntity
100
AcDbLine
  8
CADDY_2
 62
8
370
-1
  6
CONTINUOUS
 10
221.7189636230469034
 20
10.9159240722656197
 30
0.0
 11
221.79296875
 21
10.9159240722656197
 31
0.0
  0
LINE
  5
148
100
AcDbEntity
100
AcDbLine
  8
CADDY_2
 62
8
370
-1
  6
CONTINUOUS
 10
205.660400390625
 20
11.0154266357421893
 30
0.0
 11
205.8824005126953125
 21
11.0154266357421893
 31
0.0
  0
LINE
  5
149
100
AcDbEntity
100
AcDbLine
  8
CADDY_2
 62
8
370
-1
  6
CONTINUOUS
 10
207.0664520263671875
 20
11.0154266357421893
 30
0.0
 11
207.7324676513671875
 21
11.0154266357421893
 31
0.0
  0
LINE
  5
14A
100
AcDbEntity
100
AcDbLine
  8
CADDY_2
 62
8
370
-1
  6
CONTINUOUS
 10
210.7665863037109091
 20
11.0154266357421893
 30
0.0
 11
210.8405914306640909
 21
11.0154266357421893
 31
0.0
  0
LINE
  5
14B
100
AcDbEntity
100
AcDbLine
  8
CADDY_2
 62
8
370
-1
  6
CONTINUOUS
 10
211.7285766601561932
 20
11.0154266357421893
 30
0.0
 11
211.8025817871094034
 21
11.0154266357421893
 31
0.0
  0
LINE
  5
14C
100
AcDbEntity
100
AcDbLine
  8
CADDY_2
 62
8
370
-1
  6
CONTINUOUS
 10
213.5046539306640909
 20
11.0154266357421893
 30
0.0
 11
213.5786590576171875
 21
11.0154266357421893
 31
0.0
  0
LINE
  5
14D
100
AcDbEntity
100
AcDbLine
  8
CADDY_2
 62
8
370
-1
  6
CONTINUOUS
 10
214.6147003173828125
 20
11.0154266357421893
 30
0.0
 11
214.6886901855469034
 21
11.0154266357421893
 31
0.0
  0
LINE
  5
14E
100
AcDbEntity
100
AcDbLine
  8
CADDY_2
 62
8
370
-1
  6
CONTINUOUS
 10
217.2047882080078125
 20
11.0154266357421893
 30
0.0
 11
217.2787933349609091
 21
11.0154266357421893
 31
0.0
  0
LINE
  5
14F
100
AcDbEntity
100
AcDbLine
  8
CADDY_2
 62
8
370
-1
  6
CONTINUOUS
 10
218.3888244628905966
 20
11.0154266357421893
 30
0.0
 11
218.3888244628905966
 21
11.0154266357421893
 31
0.0
  0
LINE
  5
150
100
AcDbEntity
100
AcDbLine
  8
CADDY_2
 62
8
370
-1
  6
CONTINUOUS
 10
218.9808654785155966
 20
11.0154266357421893
 30
0.0
 11
219.1288604736328125
 21
11.0154266357421893
 31
0.0
  0
LINE
  5
151
100
AcDbEntity
100
AcDbLine
  8
CADDY_2
 62
8
370
-1
  6
CONTINUOUS
 10
220.0168914794921875
 20
11.0154266357421893
 30
0.0
 11
221.1269378662109091
 21
11.0154266357421893
 31
0.0
  0
LINE
  5
152
100
AcDbEntity
100
AcDbLine
  8
CADDY_2
 62
8
370
-1
  6
CONTINUOUS
 10
221.6449584960938068
 20
11.0154266357421893
 30
0.0
 11
221.7189636230469034
 21
11.0154266357421893
 31
0.0
  0
LINE
  5
153
100
AcDbEntity
100
AcDbLine
  8
CADDY_2
 62
8
370
-1
  6
CONTINUOUS
 10
205.7344055175780966
 20
11.11492919921875
 30
0.0
 11
205.9564056396484091
 21
11.11492919921875
 31
0.0
  0
LINE
  5
154
100
AcDbEntity
100
AcDbLine
  8
CADDY_2
 62
8
370
-1
  6
CONTINUOUS
 10
207.0664520263671875
 20
11.11492919921875
 30
0.0
 11
207.8064727783203125
 21
11.11492919921875
 31
0.0
  0
LINE
  5
155
100
AcDbEntity
100
AcDbLine
  8
CADDY_2
 62
8
370
-1
  6
CONTINUOUS
 10
211.7285766601561932
 20
11.11492919921875
 30
0.0
 11
211.8025817871094034
 21
11.11492919921875
 31
0.0
  0
LINE
  5
156
100
AcDbEntity
100
AcDbLine
  8
CADDY_2
 62
8
370
-1
  6
CONTINUOUS
 10
213.4306488037109091
 20
11.11492919921875
 30
0.0
 11
213.5786590576171875
 21
11.11492919921875
 31
0.0
  0
LINE
  5
157
100
AcDbEntity
100
AcDbLine
  8
CADDY_2
 62
8
370
-1
  6
CONTINUOUS
 10
214.6147003173828125
 20
11.11492919921875
 30
0.0
 11
214.6886901855469034
 21
11.11492919921875
 31
0.0
  0
LINE
  5
158
100
AcDbEntity
100
AcDbLine
  8
CADDY_2
 62
8
370
-1
  6
CONTINUOUS
 10
217.2047882080078125
 20
11.11492919921875
 30
0.0
 11
217.2787933349609091
 21
11.11492919921875
 31
0.0
  0
LINE
  5
159
100
AcDbEntity
100
AcDbLine
  8
CADDY_2
 62
8
370
-1
  6
CONTINUOUS
 10
218.9808654785155966
 20
11.11492919921875
 30
0.0
 11
219.1288604736328125
 21
11.11492919921875
 31
0.0
  0
LINE
  5
15A
100
AcDbEntity
100
AcDbLine
  8
CADDY_2
 62
8
370
-1
  6
CONTINUOUS
 10
220.0908966064453125
 20
11.11492919921875
 30
0.0
 11
221.0529479980469034
 21
11.11492919921875
 31
0.0
  0
LINE
  5
15B
100
AcDbEntity
100
AcDbLine
  8
CADDY_2
 62
8
370
-1
  6
CONTINUOUS
 10
221.6449584960938068
 20
11.11492919921875
 30
0.0
 11
221.7189636230469034
 21
11.11492919921875
 31
0.0
  0
LINE
  5
15C
100
AcDbEntity
100
AcDbLine
  8
CADDY_2
 62
8
370
-1
  6
CONTINUOUS
 10
205.8824005126953125
 20
11.21441650390625
 30
0.0
 11
206.0304107666015909
 21
11.21441650390625
 31
0.0
  0
LINE
  5
15D
100
AcDbEntity
100
AcDbLine
  8
CADDY_2
 62
8
370
-1
  6
CONTINUOUS
 10
207.1404571533203125
 20
11.21441650390625
 30
0.0
 11
207.8064727783203125
 21
11.21441650390625
 31
0.0
  0
LINE
  5
15E
100
AcDbEntity
100
AcDbLine
  8
CADDY_2
 62
8
370
-1
  6
CONTINUOUS
 10
209.1385192871094034
 20
11.21441650390625
 30
0.0
 11
209.1385192871094034
 21
11.21441650390625
 31
0.0
  0
LINE
  5
15F
100
AcDbEntity
100
AcDbLine
  8
CADDY_2
 62
8
370
-1
  6
CONTINUOUS
 10
211.7285766601561932
 20
11.21441650390625
 30
0.0
 11
211.8765869140625
 21
11.21441650390625
 31
0.0
  0
LINE
  5
160
100
AcDbEntity
100
AcDbLine
  8
CADDY_2
 62
8
370
-1
  6
CONTINUOUS
 10
213.4306488037109091
 20
11.21441650390625
 30
0.0
 11
213.5786590576171875
 21
11.21441650390625
 31
0.0
  0
LINE
  5
161
100
AcDbEntity
100
AcDbLine
  8
CADDY_2
 62
8
370
-1
  6
CONTINUOUS
 10
214.6147003173828125
 20
11.21441650390625
 30
0.0
 11
214.6886901855469034
 21
11.21441650390625
 31
0.0
  0
LINE
  5
162
100
AcDbEntity
100
AcDbLine
  8
CADDY_2
 62
8
370
-1
  6
CONTINUOUS
 10
217.2047882080078125
 20
11.21441650390625
 30
0.0
 11
217.2787933349609091
 21
11.21441650390625
 31
0.0
  0
LINE
  5
163
100
AcDbEntity
100
AcDbLine
  8
CADDY_2
 62
8
370
-1
  6
CONTINUOUS
 10
218.9808654785155966
 20
11.21441650390625
 30
0.0
 11
219.0548706054688068
 21
11.21441650390625
 31
0.0
  0
LINE
  5
164
100
AcDbEntity
100
AcDbLine
  8
CADDY_2
 62
8
370
-1
  6
CONTINUOUS
 10
221.6449584960938068
 20
11.21441650390625
 30
0.0
 11
221.6449584960938068
 21
11.21441650390625
 31
0.0
  0
LINE
  5
165
100
AcDbEntity
100
AcDbLine
  8
CADDY_2
 62
8
370
-1
  6
CONTINUOUS
 10
205.8824005126953125
 20
11.3139190673828107
 30
0.0
 11
206.0304107666015909
 21
11.3139190673828107
 31
0.0
  0
LINE
  5
166
100
AcDbEntity
100
AcDbLine
  8
CADDY_2
 62
8
370
-1
  6
CONTINUOUS
 10
207.2144622802734091
 20
11.3139190673828107
 30
0.0
 11
207.8064727783203125
 21
11.3139190673828107
 31
0.0
  0
LINE
  5
167
100
AcDbEntity
100
AcDbLine
  8
CADDY_2
 62
8
370
-1
  6
CONTINUOUS
 10
209.0645141601561932
 20
11.3139190673828107
 30
0.0
 11
209.0645141601561932
 21
11.3139190673828107
 31
0.0
  0
LINE
  5
168
100
AcDbEntity
100
AcDbLine
  8
CADDY_2
 62
8
370
-1
  6
CONTINUOUS
 10
211.7285766601561932
 20
11.3139190673828107
 30
0.0
 11
211.8765869140625
 21
11.3139190673828107
 31
0.0
  0
LINE
  5
169
100
AcDbEntity
100
AcDbLine
  8
CADDY_2
 62
8
370
-1
  6
CONTINUOUS
 10
213.4306488037109091
 20
11.3139190673828107
 30
0.0
 11
213.5786590576171875
 21
11.3139190673828107
 31
0.0
  0
LINE
  5
16A
100
AcDbEntity
100
AcDbLine
  8
CADDY_2
 62
8
370
-1
  6
CONTINUOUS
 10
214.6147003173828125
 20
11.3139190673828107
 30
0.0
 11
214.6886901855469034
 21
11.3139190673828107
 31
0.0
  0
LINE
  5
16B
100
AcDbEntity
100
AcDbLine
  8
CADDY_2
 62
8
370
-1
  6
CONTINUOUS
 10
217.2047882080078125
 20
11.3139190673828107
 30
0.0
 11
217.2787933349609091
 21
11.3139190673828107
 31
0.0
  0
LINE
  5
16C
100
AcDbEntity
100
AcDbLine
  8
CADDY_2
 62
8
370
-1
  6
CONTINUOUS
 10
218.9808654785155966
 20
11.3139190673828107
 30
0.0
 11
219.0548706054688068
 21
11.3139190673828107
 31
0.0
  0
LINE
  5
16D
100
AcDbEntity
100
AcDbLine
  8
CADDY_2
 62
8
370
-1
  6
CONTINUOUS
 10
221.5709533691405966
 20
11.3139190673828107
 30
0.0
 11
221.6449584960938068
 21
11.3139190673828107
 31
0.0
  0
LINE
  5
16E
100
AcDbEntity
100
AcDbLine
  8
CADDY_2
 62
8
370
-1
  6
CONTINUOUS
 10
205.9564056396484091
 20
11.4134063720703107
 30
0.0
 11
206.1044158935546875
 21
11.4134063720703107
 31
0.0
  0
LINE
  5
16F
100
AcDbEntity
100
AcDbLine
  8
CADDY_2
 62
8
370
-1
  6
CONTINUOUS
 10
207.2144622802734091
 20
11.4134063720703107
 30
0.0
 11
207.8064727783203125
 21
11.4134063720703107
 31
0.0
  0
LINE
  5
170
100
AcDbEntity
100
AcDbLine
  8
CADDY_2
 62
8
370
-1
  6
CONTINUOUS
 10
208.9165191650390909
 20
11.4134063720703107
 30
0.0
 11
208.9905242919921875
 21
11.4134063720703107
 31
0.0
  0
LINE
  5
171
100
AcDbEntity
100
AcDbLine
  8
CADDY_2
 62
8
370
-1
  6
CONTINUOUS
 10
211.7285766601561932
 20
11.4134063720703107
 30
0.0
 11
211.8765869140625
 21
11.4134063720703107
 31
0.0
  0
LINE
  5
172
100
AcDbEntity
100
AcDbLine
  8
CADDY_2
 62
8
370
-1
  6
CONTINUOUS
 10
213.4306488037109091
 20
11.4134063720703107
 30
0.0
 11
213.5786590576171875
 21
11.4134063720703107
 31
0.0
  0
LINE
  5
173
100
AcDbEntity
100
AcDbLine
  8
CADDY_2
 62
8
370
-1
  6
CONTINUOUS
 10
214.6147003173828125
 20
11.4134063720703107
 30
0.0
 11
214.6886901855469034
 21
11.4134063720703107
 31
0.0
  0
LINE
  5
174
100
AcDbEntity
100
AcDbLine
  8
CADDY_2
 62
8
370
-1
  6
CONTINUOUS
 10
217.2047882080078125
 20
11.4134063720703107
 30
0.0
 11
217.2787933349609091
 21
11.4134063720703107
 31
0.0
  0
LINE
  5
175
100
AcDbEntity
100
AcDbLine
  8
CADDY_2
 62
8
370
-1
  6
CONTINUOUS
 10
218.9808654785155966
 20
11.4134063720703107
 30
0.0
 11
218.9808654785155966
 21
11.4134063720703107
 31
0.0
  0
LINE
  5
176
100
AcDbEntity
100
AcDbLine
  8
CADDY_2
 62
8
370
-1
  6
CONTINUOUS
 10
221.5709533691405966
 20
11.4134063720703107
 30
0.0
 11
221.5709533691405966
 21
11.4134063720703107
 31
0.0
  0
LINE
  5
177
100
AcDbEntity
100
AcDbLine
  8
CADDY_2
 62
8
370
-1
  6
CONTINUOUS
 10
206.0304107666015909
 20
11.5129089355468803
 30
0.0
 11
206.1044158935546875
 21
11.5129089355468803
 31
0.0
  0
LINE
  5
178
100
AcDbEntity
100
AcDbLine
  8
CADDY_2
 62
8
370
-1
  6
CONTINUOUS
 10
207.2144622802734091
 20
11.5129089355468803
 30
0.0
 11
207.8064727783203125
 21
11.5129089355468803
 31
0.0
  0
LINE
  5
179
100
AcDbEntity
100
AcDbLine
  8
CADDY_2
 62
8
370
-1
  6
CONTINUOUS
 10
208.9165191650390909
 20
11.5129089355468803
 30
0.0
 11
208.9905242919921875
 21
11.5129089355468803
 31
0.0
  0
LINE
  5
17A
100
AcDbEntity
100
AcDbLine
  8
CADDY_2
 62
8
370
-1
  6
CONTINUOUS
 10
211.7285766601561932
 20
11.5129089355468803
 30
0.0
 11
211.8765869140625
 21
11.5129089355468803
 31
0.0
  0
LINE
  5
17B
100
AcDbEntity
100
AcDbLine
  8
CADDY_2
 62
8
370
-1
  6
CONTINUOUS
 10
212.9126434326171875
 20
11.5129089355468803
 30
0.0
 11
212.9126434326171875
 21
11.5129089355468803
 31
0.0
  0
LINE
  5
17C
100
AcDbEntity
100
AcDbLine
  8
CADDY_2
 62
8
370
-1
  6
CONTINUOUS
 10
213.4306488037109091
 20
11.5129089355468803
 30
0.0
 11
213.5786590576171875
 21
11.5129089355468803
 31
0.0
  0
LINE
  5
17D
100
AcDbEntity
100
AcDbLine
  8
CADDY_2
 62
8
370
-1
  6
CONTINUOUS
 10
214.6147003173828125
 20
11.5129089355468803
 30
0.0
 11
214.6886901855469034
 21
11.5129089355468803
 31
0.0
  0
LINE
  5
17E
100
AcDbEntity
100
AcDbLine
  8
CADDY_2
 62
8
370
-1
  6
CONTINUOUS
 10
217.2047882080078125
 20
11.5129089355468803
 30
0.0
 11
217.2787933349609091
 21
11.5129089355468803
 31
0.0
  0
LINE
  5
17F
100
AcDbEntity
100
AcDbLine
  8
CADDY_2
 62
8
370
-1
  6
CONTINUOUS
 10
218.3888244628905966
 20
11.5129089355468803
 30
0.0
 11
218.3888244628905966
 21
11.5129089355468803
 31
0.0
  0
LINE
  5
180
100
AcDbEntity
100
AcDbLine
  8
CADDY_2
 62
8
370
-1
  6
CONTINUOUS
 10
218.9808654785155966
 20
11.5129089355468803
 30
0.0
 11
218.9808654785155966
 21
11.5129089355468803
 31
0.0
  0
LINE
  5
181
100
AcDbEntity
100
AcDbLine
  8
CADDY_2
 62
8
370
-1
  6
CONTINUOUS
 10
220.0908966064453125
 20
11.5129089355468803
 30
0.0
 11
220.0908966064453125
 21
11.5129089355468803
 31
0.0
  0
LINE
  5
182
100
AcDbEntity
100
AcDbLine
  8
CADDY_2
 62
8
370
-1
  6
CONTINUOUS
 10
221.4969482421875
 20
11.5129089355468803
 30
0.0
 11
221.5709533691405966
 21
11.5129089355468803
 31
0.0
  0
LINE
  5
183
100
AcDbEntity
100
AcDbLine
  8
CADDY_2
 62
8
370
-1
  6
CONTINUOUS
 10
206.0304107666015909
 20
11.6123962402343803
 30
0.0
 11
206.1784210205078125
 21
11.6123962402343803
 31
0.0
  0
LINE
  5
184
100
AcDbEntity
100
AcDbLine
  8
CADDY_2
 62
8
370
-1
  6
CONTINUOUS
 10
207.2144622802734091
 20
11.6123962402343803
 30
0.0
 11
207.8064727783203125
 21
11.6123962402343803
 31
0.0
  0
LINE
  5
185
100
AcDbEntity
100
AcDbLine
  8
CADDY_2
 62
8
370
-1
  6
CONTINUOUS
 10
208.9165191650390909
 20
11.6123962402343803
 30
0.0
 11
208.9905242919921875
 21
11.6123962402343803
 31
0.0
  0
LINE
  5
186
100
AcDbEntity
100
AcDbLine
  8
CADDY_2
 62
8
370
-1
  6
CONTINUOUS
 10
211.7285766601561932
 20
11.6123962402343803
 30
0.0
 11
212.8386383056640909
 21
11.6123962402343803
 31
0.0
  0
LINE
  5
187
100
AcDbEntity
100
AcDbLine
  8
CADDY_2
 62
8
370
-1
  6
CONTINUOUS
 10
213.4306488037109091
 20
11.6123962402343803
 30
0.0
 11
213.5786590576171875
 21
11.6123962402343803
 31
0.0
  0
LINE
  5
188
100
AcDbEntity
100
AcDbLine
  8
CADDY_2
 62
8
370
-1
  6
CONTINUOUS
 10
214.6147003173828125
 20
11.6123962402343803
 30
0.0
 11
216.0947570800780966
 21
11.6123962402343803
 31
0.0
  0
LINE
  5
189
100
AcDbEntity
100
AcDbLine
  8
CADDY_2
 62
8
370
-1
  6
CONTINUOUS
 10
217.2047882080078125
 20
11.6123962402343803
 30
0.0
 11
218.3888244628905966
 21
11.6123962402343803
 31
0.0
  0
LINE
  5
18A
100
AcDbEntity
100
AcDbLine
  8
CADDY_2
 62
8
370
-1
  6
CONTINUOUS
 10
218.9068603515625
 20
11.6123962402343803
 30
0.0
 11
218.9068603515625
 21
11.6123962402343803
 31
0.0
  0
LINE
  5
18B
100
AcDbEntity
100
AcDbLine
  8
CADDY_2
 62
8
370
-1
  6
CONTINUOUS
 10
220.1649017333984091
 20
11.6123962402343803
 30
0.0
 11
220.4609222412109091
 21
11.6123962402343803
 31
0.0
  0
LINE
  5
18C
100
AcDbEntity
100
AcDbLine
  8
CADDY_2
 62
8
370
-1
  6
CONTINUOUS
 10
221.4969482421875
 20
11.6123962402343803
 30
0.0
 11
221.4969482421875
 21
11.6123962402343803
 31
0.0
  0
LINE
  5
18D
100
AcDbEntity
100
AcDbLine
  8
CADDY_2
 62
8
370
-1
  6
CONTINUOUS
 10
206.0304107666015909
 20
11.7118988037109393
 30
0.0
 11
206.1784210205078125
 21
11.7118988037109393
 31
0.0
  0
LINE
  5
18E
100
AcDbEntity
100
AcDbLine
  8
CADDY_2
 62
8
370
-1
  6
CONTINUOUS
 10
207.2144622802734091
 20
11.7118988037109393
 30
0.0
 11
207.8064727783203125
 21
11.7118988037109393
 31
0.0
  0
LINE
  5
18F
100
AcDbEntity
100
AcDbLine
  8
CADDY_2
 62
8
370
-1
  6
CONTINUOUS
 10
208.9165191650390909
 20
11.7118988037109393
 30
0.0
 11
208.9905242919921875
 21
11.7118988037109393
 31
0.0
  0
LINE
  5
190
100
AcDbEntity
100
AcDbLine
  8
CADDY_2
 62
8
370
-1
  6
CONTINUOUS
 10
211.7285766601561932
 20
11.7118988037109393
 30
0.0
 11
211.7285766601561932
 21
11.7118988037109393
 31
0.0
  0
LINE
  5
191
100
AcDbEntity
100
AcDbLine
  8
CADDY_2
 62
8
370
-1
  6
CONTINUOUS
 10
213.4306488037109091
 20
11.7118988037109393
 30
0.0
 11
213.5786590576171875
 21
11.7118988037109393
 31
0.0
  0
LINE
  5
192
100
AcDbEntity
100
AcDbLine
  8
CADDY_2
 62
8
370
-1
  6
CONTINUOUS
 10
216.020751953125
 20
11.7118988037109393
 30
0.0
 11
216.0947570800780966
 21
11.7118988037109393
 31
0.0
  0
LINE
  5
193
100
AcDbEntity
100
AcDbLine
  8
CADDY_2
 62
8
370
-1
  6
CONTINUOUS
 10
218.8328552246094034
 20
11.7118988037109393
 30
0.0
 11
218.8328552246094034
 21
11.7118988037109393
 31
0.0
  0
LINE
  5
194
100
AcDbEntity
100
AcDbLine
  8
CADDY_2
 62
8
370
-1
  6
CONTINUOUS
 10
220.2389068603515909
 20
11.7118988037109393
 30
0.0
 11
220.3869171142578125
 21
11.7118988037109393
 31
0.0
  0
LINE
  5
195
100
AcDbEntity
100
AcDbLine
  8
CADDY_2
 62
8
370
-1
  6
CONTINUOUS
 10
221.4229431152344034
 20
11.7118988037109393
 30
0.0
 11
221.4969482421875
 21
11.7118988037109393
 31
0.0
  0
LINE
  5
196
100
AcDbEntity
100
AcDbLine
  8
CADDY_2
 62
8
370
-1
  6
CONTINUOUS
 10
206.1044158935546875
 20
11.8113861083984393
 30
0.0
 11
206.1784210205078125
 21
11.8113861083984393
 31
0.0
  0
LINE
  5
197
100
AcDbEntity
100
AcDbLine
  8
CADDY_2
 62
8
370
-1
  6
CONTINUOUS
 10
207.2144622802734091
 20
11.8113861083984393
 30
0.0
 11
207.8064727783203125
 21
11.8113861083984393
 31
0.0
  0
LINE
  5
198
100
AcDbEntity
100
AcDbLine
  8
CADDY_2
 62
8
370
-1
  6
CONTINUOUS
 10
208.9165191650390909
 20
11.8113861083984393
 30
0.0
 11
208.9905242919921875
 21
11.8113861083984393
 31
0.0
  0
LINE
  5
199
100
AcDbEntity
100
AcDbLine
  8
CADDY_2
 62
8
370
-1
  6
CONTINUOUS
 10
213.4306488037109091
 20
11.8113861083984393
 30
0.0
 11
213.5786590576171875
 21
11.8113861083984393
 31
0.0
  0
LINE
  5
19A
100
AcDbEntity
100
AcDbLine
  8
CADDY_2
 62
8
370
-1
  6
CONTINUOUS
 10
216.020751953125
 20
11.8113861083984393
 30
0.0
 11
216.0947570800780966
 21
11.8113861083984393
 31
0.0
  0
LINE
  5
19B
100
AcDbEntity
100
AcDbLine
  8
CADDY_2
 62
8
370
-1
  6
CONTINUOUS
 10
218.7588500976561932
 20
11.8113861083984393
 30
0.0
 11
218.7588500976561932
 21
11.8113861083984393
 31
0.0
  0
LINE
  5
19C
100
AcDbEntity
100
AcDbLine
  8
CADDY_2
 62
8
370
-1
  6
CONTINUOUS
 10
220.2389068603515909
 20
11.8113861083984393
 30
0.0
 11
220.4609222412109091
 21
11.8113861083984393
 31
0.0
  0
LINE
  5
19D
100
AcDbEntity
100
AcDbLine
  8
CADDY_2
 62
8
370
-1
  6
CONTINUOUS
 10
221.4229431152344034
 20
11.8113861083984393
 30
0.0
 11
221.4229431152344034
 21
11.8113861083984393
 31
0.0
  0
LINE
  5
19E
100
AcDbEntity
100
AcDbLine
  8
CADDY_2
 62
8
370
-1
  6
CONTINUOUS
 10
206.1044158935546875
 20
11.910888671875
 30
0.0
 11
206.1784210205078125
 21
11.910888671875
 31
0.0
  0
LINE
  5
19F
100
AcDbEntity
100
AcDbLine
  8
CADDY_2
 62
8
370
-1
  6
CONTINUOUS
 10
207.2144622802734091
 20
11.910888671875
 30
0.0
 11
207.8064727783203125
 21
11.910888671875
 31
0.0
  0
LINE
  5
1A0
100
AcDbEntity
100
AcDbLine
  8
CADDY_2
 62
8
370
-1
  6
CONTINUOUS
 10
208.9165191650390909
 20
11.910888671875
 30
0.0
 11
208.9905242919921875
 21
11.910888671875
 31
0.0
  0
LINE
  5
1A1
100
AcDbEntity
100
AcDbLine
  8
CADDY_2
 62
8
370
-1
  6
CONTINUOUS
 10
213.4306488037109091
 20
11.910888671875
 30
0.0
 11
213.5786590576171875
 21
11.910888671875
 31
0.0
  0
LINE
  5
1A2
100
AcDbEntity
100
AcDbLine
  8
CADDY_2
 62
8
370
-1
  6
CONTINUOUS
 10
216.020751953125
 20
11.910888671875
 30
0.0
 11
216.0947570800780966
 21
11.910888671875
 31
0.0
  0
LINE
  5
1A3
100
AcDbEntity
100
AcDbLine
  8
CADDY_2
 62
8
370
-1
  6
CONTINUOUS
 10
218.61083984375
 20
11.910888671875
 30
0.0
 11
218.7588500976561932
 21
11.910888671875
 31
0.0
  0
LINE
  5
1A4
100
AcDbEntity
100
AcDbLine
  8
CADDY_2
 62
8
370
-1
  6
CONTINUOUS
 10
220.3129119873046875
 20
11.910888671875
 30
0.0
 11
220.4609222412109091
 21
11.910888671875
 31
0.0
  0
LINE
  5
1A5
100
AcDbEntity
100
AcDbLine
  8
CADDY_2
 62
8
370
-1
  6
CONTINUOUS
 10
221.3489379882811932
 20
11.910888671875
 30
0.0
 11
221.4229431152344034
 21
11.910888671875
 31
0.0
  0
LINE
  5
1A6
100
AcDbEntity
100
AcDbLine
  8
CADDY_2
 62
8
370
-1
  6
CONTINUOUS
 10
206.1044158935546875
 20
12.0103912353515607
 30
0.0
 11
206.1784210205078125
 21
12.0103912353515607
 31
0.0
  0
LINE
  5
1A7
100
AcDbEntity
100
AcDbLine
  8
CADDY_2
 62
8
370
-1
  6
CONTINUOUS
 10
207.2144622802734091
 20
12.0103912353515607
 30
0.0
 11
207.8064727783203125
 21
12.0103912353515607
 31
0.0
  0
LINE
  5
1A8
100
AcDbEntity
100
AcDbLine
  8
CADDY_2
 62
8
370
-1
  6
CONTINUOUS
 10
208.9165191650390909
 20
12.0103912353515607
 30
0.0
 11
208.9905242919921875
 21
12.0103912353515607
 31
0.0
  0
LINE
  5
1A9
100
AcDbEntity
100
AcDbLine
  8
CADDY_2
 62
8
370
-1
  6
CONTINUOUS
 10
213.4306488037109091
 20
12.0103912353515607
 30
0.0
 11
213.5786590576171875
 21
12.0103912353515607
 31
0.0
  0
LINE
  5
1AA
100
AcDbEntity
100
AcDbLine
  8
CADDY_2
 62
8
370
-1
  6
CONTINUOUS
 10
218.61083984375
 20
12.0103912353515607
 30
0.0
 11
218.7588500976561932
 21
12.0103912353515607
 31
0.0
  0
LINE
  5
1AB
100
AcDbEntity
100
AcDbLine
  8
CADDY_2
 62
8
370
-1
  6
CONTINUOUS
 10
220.3129119873046875
 20
12.0103912353515607
 30
0.0
 11
220.4609222412109091
 21
12.0103912353515607
 31
0.0
  0
LINE
  5
1AC
100
AcDbEntity
100
AcDbLine
  8
CADDY_2
 62
8
370
-1
  6
CONTINUOUS
 10
221.3489379882811932
 20
12.0103912353515607
 30
0.0
 11
221.4229431152344034
 21
12.0103912353515607
 31
0.0
  0
LINE
  5
1AD
100
AcDbEntity
100
AcDbLine
  8
CADDY_2
 62
8
370
-1
  6
CONTINUOUS
 10
206.0304107666015909
 20
12.1098785400390607
 30
0.0
 11
206.1784210205078125
 21
12.1098785400390607
 31
0.0
  0
LINE
  5
1AE
100
AcDbEntity
100
AcDbLine
  8
CADDY_2
 62
8
370
-1
  6
CONTINUOUS
 10
207.2144622802734091
 20
12.1098785400390607
 30
0.0
 11
207.8064727783203125
 21
12.1098785400390607
 31
0.0
  0
LINE
  5
1AF
100
AcDbEntity
100
AcDbLine
  8
CADDY_2
 62
8
370
-1
  6
CONTINUOUS
 10
208.9165191650390909
 20
12.1098785400390607
 30
0.0
 11
209.1385192871094034
 21
12.1098785400390607
 31
0.0
  0
LINE
  5
1B0
100
AcDbEntity
100
AcDbLine
  8
CADDY_2
 62
8
370
-1
  6
CONTINUOUS
 10
213.4306488037109091
 20
12.1098785400390607
 30
0.0
 11
213.5786590576171875
 21
12.1098785400390607
 31
0.0
  0
LINE
  5
1B1
100
AcDbEntity
100
AcDbLine
  8
CADDY_2
 62
8
370
-1
  6
CONTINUOUS
 10
218.61083984375
 20
12.1098785400390607
 30
0.0
 11
218.9068603515625
 21
12.1098785400390607
 31
0.0
  0
LINE
  5
1B2
100
AcDbEntity
100
AcDbLine
  8
CADDY_2
 62
8
370
-1
  6
CONTINUOUS
 10
220.3869171142578125
 20
12.1098785400390607
 30
0.0
 11
220.5349273681640909
 21
12.1098785400390607
 31
0.0
  0
LINE
  5
1B3
100
AcDbEntity
100
AcDbLine
  8
CADDY_2
 62
8
370
-1
  6
CONTINUOUS
 10
221.2749481201171875
 20
12.1098785400390607
 30
0.0
 11
221.3489379882811932
 21
12.1098785400390607
 31
0.0
  0
LINE
  5
1B4
100
AcDbEntity
100
AcDbLine
  8
CADDY_2
 62
8
370
-1
  6
CONTINUOUS
 10
206.0304107666015909
 20
12.2093811035156197
 30
0.0
 11
206.1044158935546875
 21
12.2093811035156197
 31
0.0
  0
LINE
  5
1B5
100
AcDbEntity
100
AcDbLine
  8
CADDY_2
 62
8
370
-1
  6
CONTINUOUS
 10
207.2144622802734091
 20
12.2093811035156197
 30
0.0
 11
207.8064727783203125
 21
12.2093811035156197
 31
0.0
  0
LINE
  5
1B6
100
AcDbEntity
100
AcDbLine
  8
CADDY_2
 62
8
370
-1
  6
CONTINUOUS
 10
208.9165191650390909
 20
12.2093811035156197
 30
0.0
 11
209.1385192871094034
 21
12.2093811035156197
 31
0.0
  0
LINE
  5
1B7
100
AcDbEntity
100
AcDbLine
  8
CADDY_2
 62
8
370
-1
  6
CONTINUOUS
 10
211.7285766601561932
 20
12.2093811035156197
 30
0.0
 11
211.8765869140625
 21
12.2093811035156197
 31
0.0
  0
LINE
  5
1B8
100
AcDbEntity
100
AcDbLine
  8
CADDY_2
 62
8
370
-1
  6
CONTINUOUS
 10
213.4306488037109091
 20
12.2093811035156197
 30
0.0
 11
213.5786590576171875
 21
12.2093811035156197
 31
0.0
  0
LINE
  5
1B9
100
AcDbEntity
100
AcDbLine
  8
CADDY_2
 62
8
370
-1
  6
CONTINUOUS
 10
214.6147003173828125
 20
12.2093811035156197
 30
0.0
 11
214.6886901855469034
 21
12.2093811035156197
 31
0.0
  0
LINE
  5
1BA
100
AcDbEntity
100
AcDbLine
  8
CADDY_2
 62
8
370
-1
  6
CONTINUOUS
 10
217.2047882080078125
 20
12.2093811035156197
 30
0.0
 11
217.3527984619140909
 21
12.2093811035156197
 31
0.0
  0
LINE
  5
1BB
100
AcDbEntity
100
AcDbLine
  8
CADDY_2
 62
8
370
-1
  6
CONTINUOUS
 10
218.6848449707030966
 20
12.2093811035156197
 30
0.0
 11
218.9068603515625
 21
12.2093811035156197
 31
0.0
  0
LINE
  5
1BC
100
AcDbEntity
100
AcDbLine
  8
CADDY_2
 62
8
370
-1
  6
CONTINUOUS
 10
220.3869171142578125
 20
12.2093811035156197
 30
0.0
 11
220.6829223632811932
 21
12.2093811035156197
 31
0.0
  0
LINE
  5
1BD
100
AcDbEntity
100
AcDbLine
  8
CADDY_2
 62
8
370
-1
  6
CONTINUOUS
 10
221.2749481201171875
 20
12.2093811035156197
 30
0.0
 11
221.2749481201171875
 21
12.2093811035156197
 31
0.0
  0
LINE
  5
1BE
100
AcDbEntity
100
AcDbLine
  8
CADDY_2
 62
8
370
-1
  6
CONTINUOUS
 10
206.0304107666015909
 20
12.3088684082031197
 30
0.0
 11
206.1044158935546875
 21
12.3088684082031197
 31
0.0
  0
LINE
  5
1BF
100
AcDbEntity
100
AcDbLine
  8
CADDY_2
 62
8
370
-1
  6
CONTINUOUS
 10
207.2144622802734091
 20
12.3088684082031197
 30
0.0
 11
207.8064727783203125
 21
12.3088684082031197
 31
0.0
  0
LINE
  5
1C0
100
AcDbEntity
100
AcDbLine
  8
CADDY_2
 62
8
370
-1
  6
CONTINUOUS
 10
208.9165191650390909
 20
12.3088684082031197
 30
0.0
 11
209.2125244140625
 21
12.3088684082031197
 31
0.0
  0
LINE
  5
1C1
100
AcDbEntity
100
AcDbLine
  8
CADDY_2
 62
8
370
-1
  6
CONTINUOUS
 10
210.7665863037109091
 20
12.3088684082031197
 30
0.0
 11
210.8405914306640909
 21
12.3088684082031197
 31
0.0
  0
LINE
  5
1C2
100
AcDbEntity
100
AcDbLine
  8
CADDY_2
 62
8
370
-1
  6
CONTINUOUS
 10
211.7285766601561932
 20
12.3088684082031197
 30
0.0
 11
211.8025817871094034
 21
12.3088684082031197
 31
0.0
  0
LINE
  5
1C3
100
AcDbEntity
100
AcDbLine
  8
CADDY_2
 62
8
370
-1
  6
CONTINUOUS
 10
213.4306488037109091
 20
12.3088684082031197
 30
0.0
 11
213.5786590576171875
 21
12.3088684082031197
 31
0.0
  0
LINE
  5
1C4
100
AcDbEntity
100
AcDbLine
  8
CADDY_2
 62
8
370
-1
  6
CONTINUOUS
 10
214.6147003173828125
 20
12.3088684082031197
 30
0.0
 11
214.6886901855469034
 21
12.3088684082031197
 31
0.0
  0
LINE
  5
1C5
100
AcDbEntity
100
AcDbLine
  8
CADDY_2
 62
8
370
-1
  6
CONTINUOUS
 10
217.2047882080078125
 20
12.3088684082031197
 30
0.0
 11
217.2787933349609091
 21
12.3088684082031197
 31
0.0
  0
LINE
  5
1C6
100
AcDbEntity
100
AcDbLine
  8
CADDY_2
 62
8
370
-1
  6
CONTINUOUS
 10
218.7588500976561932
 20
12.3088684082031197
 30
0.0
 11
218.9068603515625
 21
12.3088684082031197
 31
0.0
  0
LINE
  5
1C7
100
AcDbEntity
100
AcDbLine
  8
CADDY_2
 62
8
370
-1
  6
CONTINUOUS
 10
220.3869171142578125
 20
12.3088684082031197
 30
0.0
 11
220.6089172363280966
 21
12.3088684082031197
 31
0.0
  0
LINE
  5
1C8
100
AcDbEntity
100
AcDbLine
  8
CADDY_2
 62
8
370
-1
  6
CONTINUOUS
 10
221.2009429931640909
 20
12.3088684082031197
 30
0.0
 11
221.2749481201171875
 21
12.3088684082031197
 31
0.0
  0
LINE
  5
1C9
100
AcDbEntity
100
AcDbLine
  8
CADDY_2
 62
8
370
-1
  6
CONTINUOUS
 10
205.9564056396484091
 20
12.4083557128906197
 30
0.0
 11
206.1044158935546875
 21
12.4083557128906197
 31
0.0
  0
LINE
  5
1CA
100
AcDbEntity
100
AcDbLine
  8
CADDY_2
 62
8
370
-1
  6
CONTINUOUS
 10
207.2144622802734091
 20
12.4083557128906197
 30
0.0
 11
207.8064727783203125
 21
12.4083557128906197
 31
0.0
  0
LINE
  5
1CB
100
AcDbEntity
100
AcDbLine
  8
CADDY_2
 62
8
370
-1
  6
CONTINUOUS
 10
209.0645141601561932
 20
12.4083557128906197
 30
0.0
 11
209.3605346679688068
 21
12.4083557128906197
 31
0.0
  0
LINE
  5
1CC
100
AcDbEntity
100
AcDbLine
  8
CADDY_2
 62
8
370
-1
  6
CONTINUOUS
 10
210.4705657958984091
 20
12.4083557128906197
 30
0.0
 11
210.6185760498046875
 21
12.4083557128906197
 31
0.0
  0
LINE
  5
1CD
100
AcDbEntity
100
AcDbLine
  8
CADDY_2
 62
8
370
-1
  6
CONTINUOUS
 10
210.7665863037109091
 20
12.4083557128906197
 30
0.0
 11
210.8405914306640909
 21
12.4083557128906197
 31
0.0
  0
LINE
  5
1CE
100
AcDbEntity
100
AcDbLine
  8
CADDY_2
 62
8
370
-1
  6
CONTINUOUS
 10
211.7285766601561932
 20
12.4083557128906197
 30
0.0
 11
211.8025817871094034
 21
12.4083557128906197
 31
0.0
  0
LINE
  5
1CF
100
AcDbEntity
100
AcDbLine
  8
CADDY_2
 62
8
370
-1
  6
CONTINUOUS
 10
213.4306488037109091
 20
12.4083557128906197
 30
0.0
 11
213.5786590576171875
 21
12.4083557128906197
 31
0.0
  0
LINE
  5
1D0
100
AcDbEntity
100
AcDbLine
  8
CADDY_2
 62
8
370
-1
  6
CONTINUOUS
 10
214.6147003173828125
 20
12.4083557128906197
 30
0.0
 11
214.6886901855469034
 21
12.4083557128906197
 31
0.0
  0
LINE
  5
1D1
100
AcDbEntity
100
AcDbLine
  8
CADDY_2
 62
8
370
-1
  6
CONTINUOUS
 10
217.2047882080078125
 20
12.4083557128906197
 30
0.0
 11
217.2787933349609091
 21
12.4083557128906197
 31
0.0
  0
LINE
  5
1D2
100
AcDbEntity
100
AcDbLine
  8
CADDY_2
 62
8
370
-1
  6
CONTINUOUS
 10
218.3148498535155966
 20
12.4083557128906197
 30
0.0
 11
218.3148498535155966
 21
12.4083557128906197
 31
0.0
  0
LINE
  5
1D3
100
AcDbEntity
100
AcDbLine
  8
CADDY_2
 62
8
370
-1
  6
CONTINUOUS
 10
218.8328552246094034
 20
12.4083557128906197
 30
0.0
 11
218.9068603515625
 21
12.4083557128906197
 31
0.0
  0
LINE
  5
1D4
100
AcDbEntity
100
AcDbLine
  8
CADDY_2
 62
8
370
-1
  6
CONTINUOUS
 10
220.4609222412109091
 20
12.4083557128906197
 30
0.0
 11
220.6089172363280966
 21
12.4083557128906197
 31
0.0
  0
LINE
  5
1D5
100
AcDbEntity
100
AcDbLine
  8
CADDY_2
 62
8
370
-1
  6
CONTINUOUS
 10
221.2009429931640909
 20
12.4083557128906197
 30
0.0
 11
221.2749481201171875
 21
12.4083557128906197
 31
0.0
  0
LINE
  5
1D6
100
AcDbEntity
100
AcDbLine
  8
CADDY_2
 62
8
370
-1
  6
CONTINUOUS
 10
205.8824005126953125
 20
12.5078582763671893
 30
0.0
 11
206.0304107666015909
 21
12.5078582763671893
 31
0.0
  0
LINE
  5
1D7
100
AcDbEntity
100
AcDbLine
  8
CADDY_2
 62
8
370
-1
  6
CONTINUOUS
 10
207.1404571533203125
 20
12.5078582763671893
 30
0.0
 11
207.8064727783203125
 21
12.5078582763671893
 31
0.0
  0
LINE
  5
1D8
100
AcDbEntity
100
AcDbLine
  8
CADDY_2
 62
8
370
-1
  6
CONTINUOUS
 10
209.0645141601561932
 20
12.5078582763671893
 30
0.0
 11
209.5085296630859091
 21
12.5078582763671893
 31
0.0
  0
LINE
  5
1D9
100
AcDbEntity
100
AcDbLine
  8
CADDY_2
 62
8
370
-1
  6
CONTINUOUS
 10
210.2485656738280966
 20
12.5078582763671893
 30
0.0
 11
210.4705657958984091
 21
12.5078582763671893
 31
0.0
  0
LINE
  5
1DA
100
AcDbEntity
100
AcDbLine
  8
CADDY_2
 62
8
370
-1
  6
CONTINUOUS
 10
210.7665863037109091
 20
12.5078582763671893
 30
0.0
 11
210.8405914306640909
 21
12.5078582763671893
 31
0.0
  0
LINE
  5
1DB
100
AcDbEntity
100
AcDbLine
  8
CADDY_2
 62
8
370
-1
  6
CONTINUOUS
 10
211.7285766601561932
 20
12.5078582763671893
 30
0.0
 11
211.8025817871094034
 21
12.5078582763671893
 31
0.0
  0
LINE
  5
1DC
100
AcDbEntity
100
AcDbLine
  8
CADDY_2
 62
8
370
-1
  6
CONTINUOUS
 10
213.4306488037109091
 20
12.5078582763671893
 30
0.0
 11
213.5786590576171875
 21
12.5078582763671893
 31
0.0
  0
LINE
  5
1DD
100
AcDbEntity
100
AcDbLine
  8
CADDY_2
 62
8
370
-1
  6
CONTINUOUS
 10
214.6147003173828125
 20
12.5078582763671893
 30
0.0
 11
214.6886901855469034
 21
12.5078582763671893
 31
0.0
  0
LINE
  5
1DE
100
AcDbEntity
100
AcDbLine
  8
CADDY_2
 62
8
370
-1
  6
CONTINUOUS
 10
217.2047882080078125
 20
12.5078582763671893
 30
0.0
 11
217.2787933349609091
 21
12.5078582763671893
 31
0.0
  0
LINE
  5
1DF
100
AcDbEntity
100
AcDbLine
  8
CADDY_2
 62
8
370
-1
  6
CONTINUOUS
 10
218.8328552246094034
 20
12.5078582763671893
 30
0.0
 11
218.9068603515625
 21
12.5078582763671893
 31
0.0
  0
LINE
  5
1E0
100
AcDbEntity
100
AcDbLine
  8
CADDY_2
 62
8
370
-1
  6
CONTINUOUS
 10
220.5349273681640909
 20
12.5078582763671893
 30
0.0
 11
220.6089172363280966
 21
12.5078582763671893
 31
0.0
  0
LINE
  5
1E1
100
AcDbEntity
100
AcDbLine
  8
CADDY_2
 62
8
370
-1
  6
CONTINUOUS
 10
221.1269378662109091
 20
12.5078582763671893
 30
0.0
 11
221.2009429931640909
 21
12.5078582763671893
 31
0.0
  0
LINE
  5
1E2
100
AcDbEntity
100
AcDbLine
  8
CADDY_2
 62
8
370
-1
  6
CONTINUOUS
 10
205.8083953857421875
 20
12.60736083984375
 30
0.0
 11
205.9564056396484091
 21
12.60736083984375
 31
0.0
  0
LINE
  5
1E3
100
AcDbEntity
100
AcDbLine
  8
CADDY_2
 62
8
370
-1
  6
CONTINUOUS
 10
207.0664520263671875
 20
12.60736083984375
 30
0.0
 11
207.7324676513671875
 21
12.60736083984375
 31
0.0
  0
LINE
  5
1E4
100
AcDbEntity
100
AcDbLine
  8
CADDY_2
 62
8
370
-1
  6
CONTINUOUS
 10
209.2125244140625
 20
12.60736083984375
 30
0.0
 11
210.2485656738280966
 21
12.60736083984375
 31
0.0
  0
LINE
  5
1E5
100
AcDbEntity
100
AcDbLine
  8
CADDY_2
 62
8
370
-1
  6
CONTINUOUS
 10
210.7665863037109091
 20
12.60736083984375
 30
0.0
 11
210.8405914306640909
 21
12.60736083984375
 31
0.0
  0
LINE
  5
1E6
100
AcDbEntity
100
AcDbLine
  8
CADDY_2
 62
8
370
-1
  6
CONTINUOUS
 10
211.7285766601561932
 20
12.60736083984375
 30
0.0
 11
211.8025817871094034
 21
12.60736083984375
 31
0.0
  0
LINE
  5
1E7
100
AcDbEntity
100
AcDbLine
  8
CADDY_2
 62
8
370
-1
  6
CONTINUOUS
 10
213.4306488037109091
 20
12.60736083984375
 30
0.0
 11
213.5786590576171875
 21
12.60736083984375
 31
0.0
  0
LINE
  5
1E8
100
AcDbEntity
100
AcDbLine
  8
CADDY_2
 62
8
370
-1
  6
CONTINUOUS
 10
214.6147003173828125
 20
12.60736083984375
 30
0.0
 11
214.6886901855469034
 21
12.60736083984375
 31
0.0
  0
LINE
  5
1E9
100
AcDbEntity
100
AcDbLine
  8
CADDY_2
 62
8
370
-1
  6
CONTINUOUS
 10
217.2047882080078125
 20
12.60736083984375
 30
0.0
 11
217.2787933349609091
 21
12.60736083984375
 31
0.0
  0
LINE
  5
1EA
100
AcDbEntity
100
AcDbLine
  8
CADDY_2
 62
8
370
-1
  6
CONTINUOUS
 10
218.3148498535155966
 20
12.60736083984375
 30
0.0
 11
218.3148498535155966
 21
12.60736083984375
 31
0.0
  0
LINE
  5
1EB
100
AcDbEntity
100
AcDbLine
  8
CADDY_2
 62
8
370
-1
  6
CONTINUOUS
 10
218.8328552246094034
 20
12.60736083984375
 30
0.0
 11
218.9068603515625
 21
12.60736083984375
 31
0.0
  0
LINE
  5
1EC
100
AcDbEntity
100
AcDbLine
  8
CADDY_2
 62
8
370
-1
  6
CONTINUOUS
 10
221.0529479980469034
 20
12.60736083984375
 30
0.0
 11
221.1269378662109091
 21
12.60736083984375
 31
0.0
  0
LINE
  5
1ED
100
AcDbEntity
100
AcDbLine
  8
CADDY_2
 62
8
370
-1
  6
CONTINUOUS
 10
205.7344055175780966
 20
12.7068634033203107
 30
0.0
 11
205.8824005126953125
 21
12.7068634033203107
 31
0.0
  0
LINE
  5
1EE
100
AcDbEntity
100
AcDbLine
  8
CADDY_2
 62
8
370
-1
  6
CONTINUOUS
 10
207.0664520263671875
 20
12.7068634033203107
 30
0.0
 11
207.7324676513671875
 21
12.7068634033203107
 31
0.0
  0
LINE
  5
1EF
100
AcDbEntity
100
AcDbLine
  8
CADDY_2
 62
8
370
-1
  6
CONTINUOUS
 10
209.3605346679688068
 20
12.7068634033203107
 30
0.0
 11
210.0265655517578125
 21
12.7068634033203107
 31
0.0
  0
LINE
  5
1F0
100
AcDbEntity
100
AcDbLine
  8
CADDY_2
 62
8
370
-1
  6
CONTINUOUS
 10
210.7665863037109091
 20
12.7068634033203107
 30
0.0
 11
210.8405914306640909
 21
12.7068634033203107
 31
0.0
  0
LINE
  5
1F1
100
AcDbEntity
100
AcDbLine
  8
CADDY_2
 62
8
370
-1
  6
CONTINUOUS
 10
211.7285766601561932
 20
12.7068634033203107
 30
0.0
 11
211.8025817871094034
 21
12.7068634033203107
 31
0.0
  0
LINE
  5
1F2
100
AcDbEntity
100
AcDbLine
  8
CADDY_2
 62
8
370
-1
  6
CONTINUOUS
 10
213.4306488037109091
 20
12.7068634033203107
 30
0.0
 11
213.5786590576171875
 21
12.7068634033203107
 31
0.0
  0
LINE
  5
1F3
100
AcDbEntity
100
AcDbLine
  8
CADDY_2
 62
8
370
-1
  6
CONTINUOUS
 10
214.6147003173828125
 20
12.7068634033203107
 30
0.0
 11
216.2427520751953125
 21
12.7068634033203107
 31
0.0
  0
LINE
  5
1F4
100
AcDbEntity
100
AcDbLine
  8
CADDY_2
 62
8
370
-1
  6
CONTINUOUS
 10
217.2047882080078125
 20
12.7068634033203107
 30
0.0
 11
218.2408447265625
 21
12.7068634033203107
 31
0.0
  0
LINE
  5
1F5
100
AcDbEntity
100
AcDbLine
  8
CADDY_2
 62
8
370
-1
  6
CONTINUOUS
 10
218.8328552246094034
 20
12.7068634033203107
 30
0.0
 11
218.9068603515625
 21
12.7068634033203107
 31
0.0
  0
LINE
  5
1F6
100
AcDbEntity
100
AcDbLine
  8
CADDY_2
 62
8
370
-1
  6
CONTINUOUS
 10
220.9789428710938068
 20
12.7068634033203107
 30
0.0
 11
221.1269378662109091
 21
12.7068634033203107
 31
0.0
  0
LINE
  5
1F7
100
AcDbEntity
100
AcDbLine
  8
CADDY_2
 62
8
370
-1
  6
CONTINUOUS
 10
205.660400390625
 20
12.8063507080078107
 30
0.0
 11
205.8083953857421875
 21
12.8063507080078107
 31
0.0
  0
LINE
  5
1F8
100
AcDbEntity
100
AcDbLine
  8
CADDY_2
 62
8
370
-1
  6
CONTINUOUS
 10
207.0664520263671875
 20
12.8063507080078107
 30
0.0
 11
207.6584777832030966
 21
12.8063507080078107
 31
0.0
  0
LINE
  5
1F9
100
AcDbEntity
100
AcDbLine
  8
CADDY_2
 62
8
370
-1
  6
CONTINUOUS
 10
210.7665863037109091
 20
12.8063507080078107
 30
0.0
 11
210.8405914306640909
 21
12.8063507080078107
 31
0.0
  0
LINE
  5
1FA
100
AcDbEntity
100
AcDbLine
  8
CADDY_2
 62
8
370
-1
  6
CONTINUOUS
 10
211.7285766601561932
 20
12.8063507080078107
 30
0.0
 11
211.8025817871094034
 21
12.8063507080078107
 31
0.0
  0
LINE
  5
1FB
100
AcDbEntity
100
AcDbLine
  8
CADDY_2
 62
8
370
-1
  6
CONTINUOUS
 10
213.5046539306640909
 20
12.8063507080078107
 30
0.0
 11
213.5786590576171875
 21
12.8063507080078107
 31
0.0
  0
LINE
  5
1FC
100
AcDbEntity
100
AcDbLine
  8
CADDY_2
 62
8
370
-1
  6
CONTINUOUS
 10
214.6147003173828125
 20
12.8063507080078107
 30
0.0
 11
214.6886901855469034
 21
12.8063507080078107
 31
0.0
  0
LINE
  5
1FD
100
AcDbEntity
100
AcDbLine
  8
CADDY_2
 62
8
370
-1
  6
CONTINUOUS
 10
214.8367004394530966
 20
12.8063507080078107
 30
0.0
 11
214.9107055664061932
 21
12.8063507080078107
 31
0.0
  0
LINE
  5
1FE
100
AcDbEntity
100
AcDbLine
  8
CADDY_2
 62
8
370
-1
  6
CONTINUOUS
 10
215.0587158203125
 20
12.8063507080078107
 30
0.0
 11
216.2427520751953125
 21
12.8063507080078107
 31
0.0
  0
LINE
  5
1FF
100
AcDbEntity
100
AcDbLine
  8
CADDY_2
 62
8
370
-1
  6
CONTINUOUS
 10
217.2047882080078125
 20
12.8063507080078107
 30
0.0
 11
218.0188293457030966
 21
12.8063507080078107
 31
0.0
  0
LINE
  5
200
100
AcDbEntity
100
AcDbLine
  8
CADDY_2
 62
8
370
-1
  6
CONTINUOUS
 10
218.1668395996094034
 20
12.8063507080078107
 30
0.0
 11
218.1668395996094034
 21
12.8063507080078107
 31
0.0
  0
LINE
  5
201
100
AcDbEntity
100
AcDbLine
  8
CADDY_2
 62
8
370
-1
  6
CONTINUOUS
 10
218.7588500976561932
 20
12.8063507080078107
 30
0.0
 11
218.8328552246094034
 21
12.8063507080078107
 31
0.0
  0
LINE
  5
202
100
AcDbEntity
100
AcDbLine
  8
CADDY_2
 62
8
370
-1
  6
CONTINUOUS
 10
221.0529479980469034
 20
12.8063507080078107
 30
0.0
 11
221.1269378662109091
 21
12.8063507080078107
 31
0.0
  0
LINE
  5
203
100
AcDbEntity
100
AcDbLine
  8
CADDY_2
 62
8
370
-1
  6
CONTINUOUS
 10
205.5863952636719034
 20
12.9058532714843803
 30
0.0
 11
205.660400390625
 21
12.9058532714843803
 31
0.0
  0
LINE
  5
204
100
AcDbEntity
100
AcDbLine
  8
CADDY_2
 62
8
370
-1
  6
CONTINUOUS
 10
206.9924468994140909
 20
12.9058532714843803
 30
0.0
 11
207.6584777832030966
 21
12.9058532714843803
 31
0.0
  0
LINE
  5
205
100
AcDbEntity
100
AcDbLine
  8
CADDY_2
 62
8
370
-1
  6
CONTINUOUS
 10
211.7285766601561932
 20
12.9058532714843803
 30
0.0
 11
211.8025817871094034
 21
12.9058532714843803
 31
0.0
  0
LINE
  5
206
100
AcDbEntity
100
AcDbLine
  8
CADDY_2
 62
8
370
-1
  6
CONTINUOUS
 10
213.4306488037109091
 20
12.9058532714843803
 30
0.0
 11
213.5786590576171875
 21
12.9058532714843803
 31
0.0
  0
LINE
  5
207
100
AcDbEntity
100
AcDbLine
  8
CADDY_2
 62
8
370
-1
  6
CONTINUOUS
 10
216.0947570800780966
 20
12.9058532714843803
 30
0.0
 11
216.2427520751953125
 21
12.9058532714843803
 31
0.0
  0
LINE
  5
208
100
AcDbEntity
100
AcDbLine
  8
CADDY_2
 62
8
370
-1
  6
CONTINUOUS
 10
220.9789428710938068
 20
12.9058532714843803
 30
0.0
 11
221.0529479980469034
 21
12.9058532714843803
 31
0.0
  0
LINE
  5
209
100
AcDbEntity
100
AcDbLine
  8
CADDY_2
 62
8
370
-1
  6
CONTINUOUS
 10
205.4383850097655966
 20
13.0053405761718803
 30
0.0
 11
205.5863952636719034
 21
13.0053405761718803
 31
0.0
  0
LINE
  5
20A
100
AcDbEntity
100
AcDbLine
  8
CADDY_2
 62
8
370
-1
  6
CONTINUOUS
 10
206.9184417724609091
 20
13.0053405761718803
 30
0.0
 11
207.58447265625
 21
13.0053405761718803
 31
0.0
  0
LINE
  5
20B
100
AcDbEntity
100
AcDbLine
  8
CADDY_2
 62
8
370
-1
  6
CONTINUOUS
 10
211.7285766601561932
 20
13.0053405761718803
 30
0.0
 11
211.8025817871094034
 21
13.0053405761718803
 31
0.0
  0
LINE
  5
20C
100
AcDbEntity
100
AcDbLine
  8
CADDY_2
 62
8
370
-1
  6
CONTINUOUS
 10
213.4306488037109091
 20
13.0053405761718803
 30
0.0
 11
213.5786590576171875
 21
13.0053405761718803
 31
0.0
  0
LINE
  5
20D
100
AcDbEntity
100
AcDbLine
  8
CADDY_2
 62
8
370
-1
  6
CONTINUOUS
 10
216.0947570800780966
 20
13.0053405761718803
 30
0.0
 11
216.2427520751953125
 21
13.0053405761718803
 31
0.0
  0
LINE
  5
20E
100
AcDbEntity
100
AcDbLine
  8
CADDY_2
 62
8
370
-1
  6
CONTINUOUS
 10
220.9789428710938068
 20
13.0053405761718803
 30
0.0
 11
220.9789428710938068
 21
13.0053405761718803
 31
0.0
  0
LINE
  5
20F
100
AcDbEntity
100
AcDbLine
  8
CADDY_2
 62
8
370
-1
  6
CONTINUOUS
 10
205.2163696289061932
 20
13.1048431396484393
 30
0.0
 11
205.3643798828125
 21
13.1048431396484393
 31
0.0
  0
LINE
  5
210
100
AcDbEntity
100
AcDbLine
  8
CADDY_2
 62
8
370
-1
  6
CONTINUOUS
 10
206.8444366455078125
 20
13.1048431396484393
 30
0.0
 11
207.5104675292969034
 21
13.1048431396484393
 31
0.0
  0
LINE
  5
211
100
AcDbEntity
100
AcDbLine
  8
CADDY_2
 62
8
370
-1
  6
CONTINUOUS
 10
211.7285766601561932
 20
13.1048431396484393
 30
0.0
 11
211.7285766601561932
 21
13.1048431396484393
 31
0.0
  0
LINE
  5
212
100
AcDbEntity
100
AcDbLine
  8
CADDY_2
 62
8
370
-1
  6
CONTINUOUS
 10
213.4306488037109091
 20
13.1048431396484393
 30
0.0
 11
213.5046539306640909
 21
13.1048431396484393
 31
0.0
  0
LINE
  5
213
100
AcDbEntity
100
AcDbLine
  8
CADDY_2
 62
8
370
-1
  6
CONTINUOUS
 10
216.0947570800780966
 20
13.1048431396484393
 30
0.0
 11
216.0947570800780966
 21
13.1048431396484393
 31
0.0
  0
LINE
  5
214
100
AcDbEntity
100
AcDbLine
  8
CADDY_2
 62
8
370
-1
  6
CONTINUOUS
 10
220.9049377441405966
 20
13.1048431396484393
 30
0.0
 11
220.9049377441405966
 21
13.1048431396484393
 31
0.0
  0
LINE
  5
215
100
AcDbEntity
100
AcDbLine
  8
CADDY_2
 62
8
370
-1
  6
CONTINUOUS
 10
205.068359375
 20
13.2043304443359393
 30
0.0
 11
205.2903747558594034
 21
13.2043304443359393
 31
0.0
  0
LINE
  5
216
100
AcDbEntity
100
AcDbLine
  8
CADDY_2
 62
8
370
-1
  6
CONTINUOUS
 10
206.8444366455078125
 20
13.2043304443359393
 30
0.0
 11
207.5104675292969034
 21
13.2043304443359393
 31
0.0
  0
LINE
  5
217
100
AcDbEntity
100
AcDbLine
  8
CADDY_2
 62
8
370
-1
  6
CONTINUOUS
 10
204.6983642578125
 20
13.3038330078125
 30
0.0
 11
204.994384765625
 21
13.3038330078125
 31
0.0
  0
LINE
  5
218
100
AcDbEntity
100
AcDbLine
  8
CADDY_2
 62
8
370
-1
  6
CONTINUOUS
 10
206.6964263916015909
 20
13.3038330078125
 30
0.0
 11
207.4364624023438068
 21
13.3038330078125
 31
0.0
  0
LINE
  5
219
100
AcDbEntity
100
AcDbLine
  8
CADDY_2
 62
8
370
-1
  6
CONTINUOUS
 10
204.40234375
 20
13.4033203125
 30
0.0
 11
204.7723693847655966
 21
13.4033203125
 31
0.0
  0
LINE
  5
21A
100
AcDbEntity
100
AcDbLine
  8
CADDY_2
 62
8
370
-1
  6
CONTINUOUS
 10
206.6964263916015909
 20
13.4033203125
 30
0.0
 11
207.4364624023438068
 21
13.4033203125
 31
0.0
  0
LINE
  5
21B
100
AcDbEntity
100
AcDbLine
  8
CADDY_2
 62
8
370
-1
  6
CONTINUOUS
 10
203.3663177490234091
 20
13.5028228759765607
 30
0.0
 11
204.1803436279296875
 21
13.5028228759765607
 31
0.0
  0
LINE
  5
21C
100
AcDbEntity
100
AcDbLine
  8
CADDY_2
 62
8
370
-1
  6
CONTINUOUS
 10
206.5484161376953125
 20
13.5028228759765607
 30
0.0
 11
207.2884521484375
 21
13.5028228759765607
 31
0.0
  0
LINE
  5
21D
100
AcDbEntity
100
AcDbLine
  8
CADDY_2
 62
8
370
-1
  6
CONTINUOUS
 10
202.6262817382811932
 20
13.6023254394531197
 30
0.0
 11
203.4403228759765909
 21
13.6023254394531197
 31
0.0
  0
LINE
  5
21E
100
AcDbEntity
100
AcDbLine
  8
CADDY_2
 62
8
370
-1
  6
CONTINUOUS
 10
206.5484161376953125
 20
13.6023254394531197
 30
0.0
 11
207.2144622802734091
 21
13.6023254394531197
 31
0.0
  0
LINE
  5
21F
100
AcDbEntity
100
AcDbLine
  8
CADDY_2
 62
8
370
-1
  6
CONTINUOUS
 10
201.3682250976561932
 20
13.7018127441406197
 30
0.0
 11
202.1822662353515909
 21
13.7018127441406197
 31
0.0
  0
LINE
  5
220
100
AcDbEntity
100
AcDbLine
  8
CADDY_2
 62
8
370
-1
  6
CONTINUOUS
 10
206.3264312744140909
 20
13.7018127441406197
 30
0.0
 11
207.0664520263671875
 21
13.7018127441406197
 31
0.0
  0
LINE
  5
221
100
AcDbEntity
100
AcDbLine
  8
CADDY_2
 62
8
370
-1
  6
CONTINUOUS
 10
200.9982147216796875
 20
13.8013153076171893
 30
0.0
 11
201.3682250976561932
 21
13.8013153076171893
 31
0.0
  0
LINE
  5
222
100
AcDbEntity
100
AcDbLine
  8
CADDY_2
 62
8
370
-1
  6
CONTINUOUS
 10
206.3264312744140909
 20
13.8013153076171893
 30
0.0
 11
206.9924468994140909
 21
13.8013153076171893
 31
0.0
  0
LINE
  5
223
100
AcDbEntity
100
AcDbLine
  8
CADDY_2
 62
8
370
-1
  6
CONTINUOUS
 10
200.7022094726561932
 20
13.9008026123046893
 30
0.0
 11
200.8502197265625
 21
13.9008026123046893
 31
0.0
  0
LINE
  5
224
100
AcDbEntity
100
AcDbLine
  8
CADDY_2
 62
8
370
-1
  6
CONTINUOUS
 10
206.1784210205078125
 20
13.9008026123046893
 30
0.0
 11
206.7704315185546875
 21
13.9008026123046893
 31
0.0
  0
LINE
  5
225
100
AcDbEntity
100
AcDbLine
  8
CADDY_2
 62
8
370
-1
  6
CONTINUOUS
 10
200.4802093505859091
 20
14.00030517578125
 30
0.0
 11
200.5542144775390909
 21
14.00030517578125
 31
0.0
  0
LINE
  5
226
100
AcDbEntity
100
AcDbLine
  8
CADDY_2
 62
8
370
-1
  6
CONTINUOUS
 10
205.8824005126953125
 20
14.00030517578125
 30
0.0
 11
206.6224212646484091
 21
14.00030517578125
 31
0.0
  0
LINE
  5
227
100
AcDbEntity
100
AcDbLine
  8
CADDY_2
 62
8
370
-1
  6
CONTINUOUS
 10
200.4062042236328125
 20
14.09979248046875
 30
0.0
 11
200.4802093505859091
 21
14.09979248046875
 31
0.0
  0
LINE
  5
228
100
AcDbEntity
100
AcDbLine
  8
CADDY_2
 62
8
370
-1
  6
CONTINUOUS
 10
205.8083953857421875
 20
14.09979248046875
 30
0.0
 11
206.4744262695311932
 21
14.09979248046875
 31
0.0
  0
LINE
  5
229
100
AcDbEntity
100
AcDbLine
  8
CADDY_2
 62
8
370
-1
  6
CONTINUOUS
 10
200.2581939697265909
 20
14.1992950439453107
 30
0.0
 11
200.2581939697265909
 21
14.1992950439453107
 31
0.0
  0
LINE
  5
22A
100
AcDbEntity
100
AcDbLine
  8
CADDY_2
 62
8
370
-1
  6
CONTINUOUS
 10
205.5863952636719034
 20
14.1992950439453107
 30
0.0
 11
206.1784210205078125
 21
14.1992950439453107
 31
0.0
  0
LINE
  5
22B
100
AcDbEntity
100
AcDbLine
  8
CADDY_2
 62
8
370
-1
  6
CONTINUOUS
 10
200.1841888427734091
 20
14.2987976074218803
 30
0.0
 11
200.2581939697265909
 21
14.2987976074218803
 31
0.0
  0
LINE
  5
22C
100
AcDbEntity
100
AcDbLine
  8
CADDY_2
 62
8
370
-1
  6
CONTINUOUS
 10
205.3643798828125
 20
14.2987976074218803
 30
0.0
 11
205.9564056396484091
 21
14.2987976074218803
 31
0.0
  0
LINE
  5
22D
100
AcDbEntity
100
AcDbLine
  8
CADDY_2
 62
8
370
-1
  6
CONTINUOUS
 10
200.0361785888671875
 20
14.3982849121093803
 30
0.0
 11
200.1101837158203125
 21
14.3982849121093803
 31
0.0
  0
LINE
  5
22E
100
AcDbEntity
100
AcDbLine
  8
CADDY_2
 62
8
370
-1
  6
CONTINUOUS
 10
205.068359375
 20
14.3982849121093803
 30
0.0
 11
205.5863952636719034
 21
14.3982849121093803
 31
0.0
  0
LINE
  5
22F
100
AcDbEntity
100
AcDbLine
  8
CADDY_2
 62
8
370
-1
  6
CONTINUOUS
 10
199.9621734619140909
 20
14.4977874755859393
 30
0.0
 11
200.0361785888671875
 21
14.4977874755859393
 31
0.0
  0
LINE
  5
230
100
AcDbEntity
100
AcDbLine
  8
CADDY_2
 62
8
370
-1
  6
CONTINUOUS
 10
204.6983642578125
 20
14.4977874755859393
 30
0.0
 11
205.2903747558594034
 21
14.4977874755859393
 31
0.0
  0
LINE
  5
231
100
AcDbEntity
100
AcDbLine
  8
CADDY_2
 62
8
370
-1
  6
CONTINUOUS
 10
199.8881683349609091
 20
14.5972747802734393
 30
0.0
 11
199.8881683349609091
 21
14.5972747802734393
 31
0.0
  0
LINE
  5
232
100
AcDbEntity
100
AcDbLine
  8
CADDY_2
 62
8
370
-1
  6
CONTINUOUS
 10
203.6623077392578125
 20
14.5972747802734393
 30
0.0
 11
204.4763488769530966
 21
14.5972747802734393
 31
0.0
  0
LINE
  5
233
100
AcDbEntity
100
AcDbLine
  8
CADDY_2
 62
8
370
-1
  6
CONTINUOUS
 10
199.8141784667969034
 20
14.69677734375
 30
0.0
 11
199.8881683349609091
 21
14.69677734375
 31
0.0
  0
LINE
  5
234
100
AcDbEntity
100
AcDbLine
  8
CADDY_2
 62
8
370
-1
  6
CONTINUOUS
 10
202.6262817382811932
 20
14.69677734375
 30
0.0
 11
203.4403228759765909
 21
14.69677734375
 31
0.0
  0
LINE
  5
235
100
AcDbEntity
100
AcDbLine
  8
CADDY_2
 62
8
370
-1
  6
CONTINUOUS
 10
199.8141784667969034
 20
14.7962646484375
 30
0.0
 11
199.8141784667969034
 21
14.7962646484375
 31
0.0
  0
LINE
  5
236
100
AcDbEntity
100
AcDbLine
  8
CADDY_2
 62
8
370
-1
  6
CONTINUOUS
 10
201.9602661132811932
 20
14.7962646484375
 30
0.0
 11
202.7742919921875
 21
14.7962646484375
 31
0.0
  0
LINE
  5
237
100
AcDbEntity
100
AcDbLine
  8
CADDY_2
 62
8
370
-1
  6
CONTINUOUS
 10
199.6661682128905966
 20
14.8957672119140607
 30
0.0
 11
199.7401733398438068
 21
14.8957672119140607
 31
0.0
  0
LINE
  5
238
100
AcDbEntity
100
AcDbLine
  8
CADDY_2
 62
8
370
-1
  6
CONTINUOUS
 10
201.3682250976561932
 20
14.8957672119140607
 30
0.0
 11
202.1082611083984091
 21
14.8957672119140607
 31
0.0
  0
LINE
  5
239
100
AcDbEntity
100
AcDbLine
  8
CADDY_2
 62
8
370
-1
  6
CONTINUOUS
 10
199.6661682128905966
 20
14.9952697753906197
 30
0.0
 11
199.7401733398438068
 21
14.9952697753906197
 31
0.0
  0
LINE
  5
23A
100
AcDbEntity
100
AcDbLine
  8
CADDY_2
 62
8
370
-1
  6
CONTINUOUS
 10
201.1462249755859091
 20
14.9952697753906197
 30
0.0
 11
201.8862609863280966
 21
14.9952697753906197
 31
0.0
  0
LINE
  5
23B
100
AcDbEntity
100
AcDbLine
  8
CADDY_2
 62
8
370
-1
  6
CONTINUOUS
 10
199.6661682128905966
 20
15.0947570800781197
 30
0.0
 11
199.6661682128905966
 21
15.0947570800781197
 31
0.0
  0
LINE
  5
23C
100
AcDbEntity
100
AcDbLine
  8
CADDY_2
 62
8
370
-1
  6
CONTINUOUS
 10
200.9982147216796875
 20
15.0947570800781197
 30
0.0
 11
201.7382507324219034
 21
15.0947570800781197
 31
0.0
  0
LINE
  5
23D
100
AcDbEntity
100
AcDbLine
  8
CADDY_2
 62
8
370
-1
  6
CONTINUOUS
 10
199.5921630859375
 20
15.1942596435546893
 30
0.0
 11
199.5921630859375
 21
15.1942596435546893
 31
0.0
  0
LINE
  5
23E
100
AcDbEntity
100
AcDbLine
  8
CADDY_2
 62
8
370
-1
  6
CONTINUOUS
 10
200.8502197265625
 20
15.1942596435546893
 30
0.0
 11
201.5902404785155966
 21
15.1942596435546893
 31
0.0
  0
LINE
  5
23F
100
AcDbEntity
100
AcDbLine
  8
CADDY_2
 62
8
370
-1
  6
CONTINUOUS
 10
199.5921630859375
 20
15.2937469482421893
 30
0.0
 11
199.5921630859375
 21
15.2937469482421893
 31
0.0
  0
LINE
  5
240
100
AcDbEntity
100
AcDbLine
  8
CADDY_2
 62
8
370
-1
  6
CONTINUOUS
 10
200.7762145996094034
 20
15.2937469482421893
 30
0.0
 11
201.4422302246094034
 21
15.2937469482421893
 31
0.0
  0
LINE
  5
241
100
AcDbEntity
100
AcDbLine
  8
CADDY_2
 62
8
370
-1
  6
CONTINUOUS
 10
199.5921630859375
 20
15.39324951171875
 30
0.0
 11
199.5921630859375
 21
15.39324951171875
 31
0.0
  0
LINE
  5
242
100
AcDbEntity
100
AcDbLine
  8
CADDY_2
 62
8
370
-1
  6
CONTINUOUS
 10
200.6282043457030966
 20
15.39324951171875
 30
0.0
 11
201.3682250976561932
 21
15.39324951171875
 31
0.0
  0
LINE
  5
243
100
AcDbEntity
100
AcDbLine
  8
CADDY_2
 62
8
370
-1
  6
CONTINUOUS
 10
199.5921630859375
 20
15.49273681640625
 30
0.0
 11
199.5921630859375
 21
15.49273681640625
 31
0.0
  0
LINE
  5
244
100
AcDbEntity
100
AcDbLine
  8
CADDY_2
 62
8
370
-1
  6
CONTINUOUS
 10
200.6282043457030966
 20
15.49273681640625
 30
0.0
 11
201.3682250976561932
 21
15.49273681640625
 31
0.0
  0
LINE
  5
245
100
AcDbEntity
100
AcDbLine
  8
CADDY_2
 62
8
370
-1
  6
CONTINUOUS
 10
199.5181732177734091
 20
15.5922393798828107
 30
0.0
 11
199.5181732177734091
 21
15.5922393798828107
 31
0.0
  0
LINE
  5
246
100
AcDbEntity
100
AcDbLine
  8
CADDY_2
 62
8
370
-1
  6
CONTINUOUS
 10
200.5542144775390909
 20
15.5922393798828107
 30
0.0
 11
201.2942352294921875
 21
15.5922393798828107
 31
0.0
  0
LINE
  5
247
100
AcDbEntity
100
AcDbLine
  8
CADDY_2
 62
8
370
-1
  6
CONTINUOUS
 10
199.5181732177734091
 20
15.6917419433593803
 30
0.0
 11
199.5181732177734091
 21
15.6917419433593803
 31
0.0
  0
LINE
  5
248
100
AcDbEntity
100
AcDbLine
  8
CADDY_2
 62
8
370
-1
  6
CONTINUOUS
 10
200.4802093505859091
 20
15.6917419433593803
 30
0.0
 11
201.2942352294921875
 21
15.6917419433593803
 31
0.0
  0
LINE
  5
249
100
AcDbEntity
100
AcDbLine
  8
CADDY_2
 62
8
370
-1
  6
CONTINUOUS
 10
199.5181732177734091
 20
15.7912292480468803
 30
0.0
 11
199.5181732177734091
 21
15.7912292480468803
 31
0.0
  0
LINE
  5
24A
100
AcDbEntity
100
AcDbLine
  8
CADDY_2
 62
8
370
-1
  6
CONTINUOUS
 10
200.4802093505859091
 20
15.7912292480468803
 30
0.0
 11
201.2202301025390909
 21
15.7912292480468803
 31
0.0
  0
LINE
  5
24B
100
AcDbEntity
100
AcDbLine
  8
CADDY_2
 62
8
370
-1
  6
CONTINUOUS
 10
199.5181732177734091
 20
15.8907318115234393
 30
0.0
 11
199.5181732177734091
 21
15.8907318115234393
 31
0.0
  0
LINE
  5
24C
100
AcDbEntity
100
AcDbLine
  8
CADDY_2
 62
8
370
-1
  6
CONTINUOUS
 10
200.4802093505859091
 20
15.8907318115234393
 30
0.0
 11
201.2202301025390909
 21
15.8907318115234393
 31
0.0
  0
LINE
  5
24D
100
AcDbEntity
100
AcDbLine
  8
CADDY_2
 62
8
370
-1
  6
CONTINUOUS
 10
199.5181732177734091
 20
15.9902191162109393
 30
0.0
 11
199.5181732177734091
 21
15.9902191162109393
 31
0.0
  0
LINE
  5
24E
100
AcDbEntity
100
AcDbLine
  8
CADDY_2
 62
8
370
-1
  6
CONTINUOUS
 10
200.4802093505859091
 20
15.9902191162109393
 30
0.0
 11
201.2202301025390909
 21
15.9902191162109393
 31
0.0
  0
LINE
  5
24F
100
AcDbEntity
100
AcDbLine
  8
CADDY_2
 62
8
370
-1
  6
CONTINUOUS
 10
199.5181732177734091
 20
16.0897216796875
 30
0.0
 11
199.5181732177734091
 21
16.0897216796875
 31
0.0
  0
LINE
  5
250
100
AcDbEntity
100
AcDbLine
  8
CADDY_2
 62
8
370
-1
  6
CONTINUOUS
 10
200.4802093505859091
 20
16.0897216796875
 30
0.0
 11
201.2202301025390909
 21
16.0897216796875
 31
0.0
  0
LINE
  5
251
100
AcDbEntity
100
AcDbLine
  8
CADDY_2
 62
8
370
-1
  6
CONTINUOUS
 10
199.5181732177734091
 20
16.189208984375
 30
0.0
 11
199.5181732177734091
 21
16.189208984375
 31
0.0
  0
LINE
  5
252
100
AcDbEntity
100
AcDbLine
  8
CADDY_2
 62
8
370
-1
  6
CONTINUOUS
 10
200.4802093505859091
 20
16.189208984375
 30
0.0
 11
201.2942352294921875
 21
16.189208984375
 31
0.0
  0
LINE
  5
253
100
AcDbEntity
100
AcDbLine
  8
CADDY_2
 62
8
370
-1
  6
CONTINUOUS
 10
199.5181732177734091
 20
16.2887115478515589
 30
0.0
 11
199.5181732177734091
 21
16.2887115478515589
 31
0.0
  0
LINE
  5
254
100
AcDbEntity
100
AcDbLine
  8
CADDY_2
 62
8
370
-1
  6
CONTINUOUS
 10
200.5542144775390909
 20
16.2887115478515589
 30
0.0
 11
201.3682250976561932
 21
16.2887115478515589
 31
0.0
  0
LINE
  5
255
100
AcDbEntity
100
AcDbLine
  8
CADDY_2
 62
8
370
-1
  6
CONTINUOUS
 10
200.5542144775390909
 20
16.3881988525390589
 30
0.0
 11
201.4422302246094034
 21
16.3881988525390589
 31
0.0
  0
LINE
  5
256
100
AcDbEntity
100
AcDbLine
  8
CADDY_2
 62
8
370
-1
  6
CONTINUOUS
 10
199.5921630859375
 20
16.4877014160156214
 30
0.0
 11
199.5921630859375
 21
16.4877014160156214
 31
0.0
  0
LINE
  5
257
100
AcDbEntity
100
AcDbLine
  8
CADDY_2
 62
8
370
-1
  6
CONTINUOUS
 10
200.6282043457030966
 20
16.4877014160156214
 30
0.0
 11
201.5902404785155966
 21
16.4877014160156214
 31
0.0
  0
LINE
  5
258
100
AcDbEntity
100
AcDbLine
  8
CADDY_2
 62
8
370
-1
  6
CONTINUOUS
 10
199.5921630859375
 20
16.5872039794921911
 30
0.0
 11
199.5921630859375
 21
16.5872039794921911
 31
0.0
  0
LINE
  5
259
100
AcDbEntity
100
AcDbLine
  8
CADDY_2
 62
8
370
-1
  6
CONTINUOUS
 10
200.6282043457030966
 20
16.5872039794921911
 30
0.0
 11
201.6642456054688068
 21
16.5872039794921911
 31
0.0
  0
LINE
  5
25A
100
AcDbEntity
100
AcDbLine
  8
CADDY_2
 62
8
370
-1
  6
CONTINUOUS
 10
199.5921630859375
 20
16.68670654296875
 30
0.0
 11
199.5921630859375
 21
16.68670654296875
 31
0.0
  0
LINE
  5
25B
100
AcDbEntity
100
AcDbLine
  8
CADDY_2
 62
8
370
-1
  6
CONTINUOUS
 10
200.7762145996094034
 20
16.68670654296875
 30
0.0
 11
202.1082611083984091
 21
16.68670654296875
 31
0.0
  0
LINE
  5
25C
100
AcDbEntity
100
AcDbLine
  8
CADDY_2
 62
8
370
-1
  6
CONTINUOUS
 10
199.5921630859375
 20
16.78619384765625
 30
0.0
 11
199.5921630859375
 21
16.78619384765625
 31
0.0
  0
LINE
  5
25D
100
AcDbEntity
100
AcDbLine
  8
CADDY_2
 62
8
370
-1
  6
CONTINUOUS
 10
200.8502197265625
 20
16.78619384765625
 30
0.0
 11
202.4042663574219034
 21
16.78619384765625
 31
0.0
  0
LINE
  5
25E
100
AcDbEntity
100
AcDbLine
  8
CADDY_2
 62
8
370
-1
  6
CONTINUOUS
 10
199.6661682128905966
 20
16.88568115234375
 30
0.0
 11
199.6661682128905966
 21
16.88568115234375
 31
0.0
  0
LINE
  5
25F
100
AcDbEntity
100
AcDbLine
  8
CADDY_2
 62
8
370
-1
  6
CONTINUOUS
 10
200.9982147216796875
 20
16.88568115234375
 30
0.0
 11
223.1250152587890909
 21
16.88568115234375
 31
0.0
  0
LINE
  5
260
100
AcDbEntity
100
AcDbLine
  8
CADDY_2
 62
8
370
-1
  6
CONTINUOUS
 10
199.6661682128905966
 20
16.9851837158203089
 30
0.0
 11
199.7401733398438068
 21
16.9851837158203089
 31
0.0
  0
LINE
  5
261
100
AcDbEntity
100
AcDbLine
  8
CADDY_2
 62
8
370
-1
  6
CONTINUOUS
 10
201.1462249755859091
 20
16.9851837158203089
 30
0.0
 11
223.1250152587890909
 21
16.9851837158203089
 31
0.0
  0
LINE
  5
262
100
AcDbEntity
100
AcDbLine
  8
CADDY_2
 62
8
370
-1
  6
CONTINUOUS
 10
199.7401733398438068
 20
17.0846710205078089
 30
0.0
 11
199.7401733398438068
 21
17.0846710205078089
 31
0.0
  0
LINE
  5
263
100
AcDbEntity
100
AcDbLine
  8
CADDY_2
 62
8
370
-1
  6
CONTINUOUS
 10
201.2942352294921875
 20
17.0846710205078089
 30
0.0
 11
223.1250152587890909
 21
17.0846710205078089
 31
0.0
  0
LINE
  5
264
100
AcDbEntity
100
AcDbLine
  8
CADDY_2
 62
8
370
-1
  6
CONTINUOUS
 10
199.8141784667969034
 20
17.1841735839843786
 30
0.0
 11
199.8881683349609091
 21
17.1841735839843786
 31
0.0
  0
LINE
  5
265
100
AcDbEntity
100
AcDbLine
  8
CADDY_2
 62
8
370
-1
  6
CONTINUOUS
 10
201.6642456054688068
 20
17.1841735839843786
 30
0.0
 11
223.1250152587890909
 21
17.1841735839843786
 31
0.0
  0
LINE
  5
266
100
AcDbEntity
100
AcDbLine
  8
CADDY_2
 62
8
370
-1
  6
CONTINUOUS
 10
199.8141784667969034
 20
17.2836761474609411
 30
0.0
 11
199.8881683349609091
 21
17.2836761474609411
 31
0.0
  0
LINE
  5
267
100
AcDbEntity
100
AcDbLine
  8
CADDY_2
 62
8
370
-1
  6
CONTINUOUS
 10
222.7550048828125
 20
17.2836761474609411
 30
0.0
 11
223.1250152587890909
 21
17.2836761474609411
 31
0.0
  0
LINE
  5
268
100
AcDbEntity
100
AcDbLine
  8
CADDY_2
 62
8
370
-1
  6
CONTINUOUS
 10
199.9621734619140909
 20
17.3831634521484411
 30
0.0
 11
199.9621734619140909
 21
17.3831634521484411
 31
0.0
  0
LINE
  5
269
100
AcDbEntity
100
AcDbLine
  8
CADDY_2
 62
8
370
-1
  6
CONTINUOUS
 10
222.7550048828125
 20
17.3831634521484411
 30
0.0
 11
223.1250152587890909
 21
17.3831634521484411
 31
0.0
  0
LINE
  5
26A
100
AcDbEntity
100
AcDbLine
  8
CADDY_2
 62
8
370
-1
  6
CONTINUOUS
 10
199.9621734619140909
 20
17.482666015625
 30
0.0
 11
200.0361785888671875
 21
17.482666015625
 31
0.0
  0
LINE
  5
26B
100
AcDbEntity
100
AcDbLine
  8
CADDY_2
 62
8
370
-1
  6
CONTINUOUS
 10
222.7550048828125
 20
17.482666015625
 30
0.0
 11
223.1250152587890909
 21
17.482666015625
 31
0.0
  0
LINE
  5
26C
100
AcDbEntity
100
AcDbLine
  8
CADDY_2
 62
8
370
-1
  6
CONTINUOUS
 10
200.1101837158203125
 20
17.5821533203125
 30
0.0
 11
200.1841888427734091
 21
17.5821533203125
 31
0.0
  0
LINE
  5
26D
100
AcDbEntity
100
AcDbLine
  8
CADDY_2
 62
8
370
-1
  6
CONTINUOUS
 10
222.7550048828125
 20
17.5821533203125
 30
0.0
 11
223.1250152587890909
 21
17.5821533203125
 31
0.0
  0
LINE
  5
26E
100
AcDbEntity
100
AcDbLine
  8
CADDY_2
 62
8
370
-1
  6
CONTINUOUS
 10
200.1841888427734091
 20
17.6816558837890589
 30
0.0
 11
200.2581939697265909
 21
17.6816558837890589
 31
0.0
  0
LINE
  5
26F
100
AcDbEntity
100
AcDbLine
  8
CADDY_2
 62
8
370
-1
  6
CONTINUOUS
 10
222.7550048828125
 20
17.6816558837890589
 30
0.0
 11
223.1250152587890909
 21
17.6816558837890589
 31
0.0
  0
LINE
  5
270
100
AcDbEntity
100
AcDbLine
  8
CADDY_2
 62
8
370
-1
  6
CONTINUOUS
 10
200.2581939697265909
 20
17.7811431884765589
 30
0.0
 11
200.3321990966796875
 21
17.7811431884765589
 31
0.0
  0
LINE
  5
271
100
AcDbEntity
100
AcDbLine
  8
CADDY_2
 62
8
370
-1
  6
CONTINUOUS
 10
222.7550048828125
 20
17.7811431884765589
 30
0.0
 11
223.1250152587890909
 21
17.7811431884765589
 31
0.0
  0
LINE
  5
272
100
AcDbEntity
100
AcDbLine
  8
CADDY_2
 62
8
370
-1
  6
CONTINUOUS
 10
200.4062042236328125
 20
17.8806457519531214
 30
0.0
 11
200.5542144775390909
 21
17.8806457519531214
 31
0.0
  0
LINE
  5
273
100
AcDbEntity
100
AcDbLine
  8
CADDY_2
 62
8
370
-1
  6
CONTINUOUS
 10
222.7550048828125
 20
17.8806457519531214
 30
0.0
 11
223.1250152587890909
 21
17.8806457519531214
 31
0.0
  0
LINE
  5
274
100
AcDbEntity
100
AcDbLine
  8
CADDY_2
 62
8
370
-1
  6
CONTINUOUS
 10
200.4802093505859091
 20
17.9801330566406214
 30
0.0
 11
200.6282043457030966
 21
17.9801330566406214
 31
0.0
  0
LINE
  5
275
100
AcDbEntity
100
AcDbLine
  8
CADDY_2
 62
8
370
-1
  6
CONTINUOUS
 10
222.7550048828125
 20
17.9801330566406214
 30
0.0
 11
223.1250152587890909
 21
17.9801330566406214
 31
0.0
  0
LINE
  5
276
100
AcDbEntity
100
AcDbLine
  8
CADDY_2
 62
8
370
-1
  6
CONTINUOUS
 10
200.7022094726561932
 20
18.0796356201171911
 30
0.0
 11
200.9242095947265909
 21
18.0796356201171911
 31
0.0
  0
LINE
  5
277
100
AcDbEntity
100
AcDbLine
  8
CADDY_2
 62
8
370
-1
  6
CONTINUOUS
 10
222.7550048828125
 20
18.0796356201171911
 30
0.0
 11
223.1250152587890909
 21
18.0796356201171911
 31
0.0
  0
LINE
  5
278
100
AcDbEntity
100
AcDbLine
  8
CADDY_2
 62
8
370
-1
  6
CONTINUOUS
 10
200.7762145996094034
 20
18.17913818359375
 30
0.0
 11
201.0722198486328125
 21
18.17913818359375
 31
0.0
  0
LINE
  5
279
100
AcDbEntity
100
AcDbLine
  8
CADDY_2
 62
8
370
-1
  6
CONTINUOUS
 10
222.7550048828125
 20
18.17913818359375
 30
0.0
 11
222.9770050048828125
 21
18.17913818359375
 31
0.0
  0
LINE
  5
27A
100
AcDbEntity
100
AcDbLine
  8
CADDY_2
 62
8
370
-1
  6
CONTINUOUS
 10
201.1462249755859091
 20
18.27862548828125
 30
0.0
 11
201.2202301025390909
 21
18.27862548828125
 31
0.0
  0
LINE
  5
27B
100
AcDbEntity
100
AcDbLine
  8
CADDY_2
 62
8
370
-1
  6
CONTINUOUS
 10
222.6069946289061932
 20
18.27862548828125
 30
0.0
 11
222.8289947509765909
 21
18.27862548828125
 31
0.0
  0
LINE
  5
27C
100
AcDbEntity
100
AcDbLine
  8
CADDY_2
 62
8
370
-1
  6
CONTINUOUS
 10
201.3682250976561932
 20
18.3781280517578089
 30
0.0
 11
222.8289947509765909
 21
18.3781280517578089
 31
0.0
  0
LINE
  5
27D
100
AcDbEntity
100
AcDbLine
  8
CADDY_2
 62
140
370
-1
  6
CONTINUOUS
 10
198.9093933105469034
 20
9.125
 30
0.0
 11
205.0570068359375
 21
9.125
 31
0.0
  0
LINE
  5
27E
100
AcDbEntity
100
AcDbLine
  8
CADDY_2
 62
140
370
-1
  6
CONTINUOUS
 10
198.9093933105469034
 20
9.2274932861328125
 30
0.0
 11
205.2819213867188068
 21
9.2274932861328125
 31
0.0
  0
LINE
  5
27F
100
AcDbEntity
100
AcDbLine
  8
CADDY_2
 62
140
370
-1
  6
CONTINUOUS
 10
198.9093933105469034
 20
9.329986572265625
 30
0.0
 11
205.8067169189453125
 21
9.329986572265625
 31
0.0
  0
LINE
  5
280
100
AcDbEntity
100
AcDbLine
  8
CADDY_2
 62
140
370
-1
  6
CONTINUOUS
 10
198.9093933105469034
 20
9.4324798583984375
 30
0.0
 11
205.8816986083984091
 21
9.4324798583984375
 31
0.0
  0
LINE
  5
281
100
AcDbEntity
100
AcDbLine
  8
CADDY_2
 62
140
370
-1
  6
CONTINUOUS
 10
198.9093933105469034
 20
9.53497314453125
 30
0.0
 11
206.1815490722655966
 21
9.53497314453125
 31
0.0
  0
LINE
  5
282
100
AcDbEntity
100
AcDbLine
  8
CADDY_2
 62
140
370
-1
  6
CONTINUOUS
 10
198.9093933105469034
 20
9.6374664306640625
 30
0.0
 11
206.2565460205078125
 21
9.6374664306640625
 31
0.0
  0
LINE
  5
283
100
AcDbEntity
100
AcDbLine
  8
CADDY_2
 62
140
370
-1
  6
CONTINUOUS
 10
198.9093933105469034
 20
9.739959716796875
 30
0.0
 11
206.4814605712890909
 21
9.739959716796875
 31
0.0
  0
LINE
  5
284
100
AcDbEntity
100
AcDbLine
  8
CADDY_2
 62
140
370
-1
  6
CONTINUOUS
 10
198.9093933105469034
 20
9.8424530029296875
 30
0.0
 11
206.6313934326171875
 21
9.8424530029296875
 31
0.0
  0
LINE
  5
285
100
AcDbEntity
100
AcDbLine
  8
CADDY_2
 62
140
370
-1
  6
CONTINUOUS
 10
198.9093933105469034
 20
9.9449462890625
 30
0.0
 11
206.6313934326171875
 21
9.9449462890625
 31
0.0
  0
LINE
  5
286
100
AcDbEntity
100
AcDbLine
  8
CADDY_2
 62
140
370
-1
  6
CONTINUOUS
 10
204.8320922851561932
 20
10.0474395751953107
 30
0.0
 11
206.7813262939453125
 21
10.0474395751953107
 31
0.0
  0
LINE
  5
287
100
AcDbEntity
100
AcDbLine
  8
CADDY_2
 62
140
370
-1
  6
CONTINUOUS
 10
204.9820251464844034
 20
10.1499328613281197
 30
0.0
 11
206.8563079833984091
 21
10.1499328613281197
 31
0.0
  0
LINE
  5
288
100
AcDbEntity
100
AcDbLine
  8
CADDY_2
 62
140
370
-1
  6
CONTINUOUS
 10
214.2784576416015909
 20
10.1499328613281197
 30
0.0
 11
216.3776245117188068
 21
10.1499328613281197
 31
0.0
  0
LINE
  5
289
100
AcDbEntity
100
AcDbLine
  8
CADDY_2
 62
140
370
-1
  6
CONTINUOUS
 10
216.9024200439453125
 20
10.1499328613281197
 30
0.0
 11
218.1769256591796875
 21
10.1499328613281197
 31
0.0
  0
LINE
  5
28A
100
AcDbEntity
100
AcDbLine
  8
CADDY_2
 62
140
370
-1
  6
CONTINUOUS
 10
219.5264129638671875
 20
10.1499328613281197
 30
0.0
 11
219.9762268066405966
 21
10.1499328613281197
 31
0.0
  0
LINE
  5
28B
100
AcDbEntity
100
AcDbLine
  8
CADDY_2
 62
140
370
-1
  6
CONTINUOUS
 10
221.7005615234375
 20
10.1499328613281197
 30
0.0
 11
222.150390625
 21
10.1499328613281197
 31
0.0
  0
LINE
  5
28C
100
AcDbEntity
100
AcDbLine
  8
CADDY_2
 62
140
370
-1
  6
CONTINUOUS
 10
205.2819213867188068
 20
10.2524261474609393
 30
0.0
 11
206.9312896728515909
 21
10.2524261474609393
 31
0.0
  0
LINE
  5
28D
100
AcDbEntity
100
AcDbLine
  8
CADDY_2
 62
140
370
-1
  6
CONTINUOUS
 10
209.2553863525390909
 20
10.2524261474609393
 30
0.0
 11
210.5298614501953125
 21
10.2524261474609393
 31
0.0
  0
LINE
  5
28E
100
AcDbEntity
100
AcDbLine
  8
CADDY_2
 62
140
370
-1
  6
CONTINUOUS
 10
211.3545532226561932
 20
10.2524261474609393
 30
0.0
 11
211.8793792724609091
 21
10.2524261474609393
 31
0.0
  0
LINE
  5
28F
100
AcDbEntity
100
AcDbLine
  8
CADDY_2
 62
140
370
-1
  6
CONTINUOUS
 10
213.1538696289061932
 20
10.2524261474609393
 30
0.0
 11
213.6036987304688068
 21
10.2524261474609393
 31
0.0
  0
LINE
  5
290
100
AcDbEntity
100
AcDbLine
  8
CADDY_2
 62
140
370
-1
  6
CONTINUOUS
 10
214.2784576416015909
 20
10.2524261474609393
 30
0.0
 11
216.3776245117188068
 21
10.2524261474609393
 31
0.0
  0
LINE
  5
291
100
AcDbEntity
100
AcDbLine
  8
CADDY_2
 62
140
370
-1
  6
CONTINUOUS
 10
216.9024200439453125
 20
10.2524261474609393
 30
0.0
 11
218.9266357421875
 21
10.2524261474609393
 31
0.0
  0
LINE
  5
292
100
AcDbEntity
100
AcDbLine
  8
CADDY_2
 62
140
370
-1
  6
CONTINUOUS
 10
219.5264129638671875
 20
10.2524261474609393
 30
0.0
 11
220.1261749267578125
 21
10.2524261474609393
 31
0.0
  0
LINE
  5
293
100
AcDbEntity
100
AcDbLine
  8
CADDY_2
 62
140
370
-1
  6
CONTINUOUS
 10
221.6256103515625
 20
10.2524261474609393
 30
0.0
 11
222.150390625
 21
10.2524261474609393
 31
0.0
  0
LINE
  5
294
100
AcDbEntity
100
AcDbLine
  8
CADDY_2
 62
140
370
-1
  6
CONTINUOUS
 10
205.4318695068359091
 20
10.35491943359375
 30
0.0
 11
207.0062408447265909
 21
10.35491943359375
 31
0.0
  0
LINE
  5
295
100
AcDbEntity
100
AcDbLine
  8
CADDY_2
 62
140
370
-1
  6
CONTINUOUS
 10
209.1804046630859091
 20
10.35491943359375
 30
0.0
 11
210.6798553466796875
 21
10.35491943359375
 31
0.0
  0
LINE
  5
296
100
AcDbEntity
100
AcDbLine
  8
CADDY_2
 62
140
370
-1
  6
CONTINUOUS
 10
211.3545532226561932
 20
10.35491943359375
 30
0.0
 11
211.8793792724609091
 21
10.35491943359375
 31
0.0
  0
LINE
  5
297
100
AcDbEntity
100
AcDbLine
  8
CADDY_2
 62
140
370
-1
  6
CONTINUOUS
 10
213.1538696289061932
 20
10.35491943359375
 30
0.0
 11
213.6036987304688068
 21
10.35491943359375
 31
0.0
  0
LINE
  5
298
100
AcDbEntity
100
AcDbLine
  8
CADDY_2
 62
140
370
-1
  6
CONTINUOUS
 10
214.2784576416015909
 20
10.35491943359375
 30
0.0
 11
216.3776245117188068
 21
10.35491943359375
 31
0.0
  0
LINE
  5
299
100
AcDbEntity
100
AcDbLine
  8
CADDY_2
 62
140
370
-1
  6
CONTINUOUS
 10
216.9024200439453125
 20
10.35491943359375
 30
0.0
 11
219.0016174316405966
 21
10.35491943359375
 31
0.0
  0
LINE
  5
29A
100
AcDbEntity
100
AcDbLine
  8
CADDY_2
 62
140
370
-1
  6
CONTINUOUS
 10
219.6013946533203125
 20
10.35491943359375
 30
0.0
 11
220.1261749267578125
 21
10.35491943359375
 31
0.0
  0
LINE
  5
29B
100
AcDbEntity
100
AcDbLine
  8
CADDY_2
 62
140
370
-1
  6
CONTINUOUS
 10
221.6256103515625
 20
10.35491943359375
 30
0.0
 11
222.150390625
 21
10.35491943359375
 31
0.0
  0
LINE
  5
29C
100
AcDbEntity
100
AcDbLine
  8
CADDY_2
 62
140
370
-1
  6
CONTINUOUS
 10
205.6567840576171875
 20
10.4574127197265607
 30
0.0
 11
207.0812225341796875
 21
10.4574127197265607
 31
0.0
  0
LINE
  5
29D
100
AcDbEntity
100
AcDbLine
  8
CADDY_2
 62
140
370
-1
  6
CONTINUOUS
 10
208.9554901123046875
 20
10.4574127197265607
 30
0.0
 11
210.8297729492188068
 21
10.4574127197265607
 31
0.0
  0
LINE
  5
29E
100
AcDbEntity
100
AcDbLine
  8
CADDY_2
 62
140
370
-1
  6
CONTINUOUS
 10
211.3545532226561932
 20
10.4574127197265607
 30
0.0
 11
211.8793792724609091
 21
10.4574127197265607
 31
0.0
  0
LINE
  5
29F
100
AcDbEntity
100
AcDbLine
  8
CADDY_2
 62
140
370
-1
  6
CONTINUOUS
 10
213.1538696289061932
 20
10.4574127197265607
 30
0.0
 11
213.6036987304688068
 21
10.4574127197265607
 31
0.0
  0
LINE
  5
2A0
100
AcDbEntity
100
AcDbLine
  8
CADDY_2
 62
140
370
-1
  6
CONTINUOUS
 10
214.2784576416015909
 20
10.4574127197265607
 30
0.0
 11
216.3776245117188068
 21
10.4574127197265607
 31
0.0
  0
LINE
  5
2A1
100
AcDbEntity
100
AcDbLine
  8
CADDY_2
 62
140
370
-1
  6
CONTINUOUS
 10
216.9024200439453125
 20
10.4574127197265607
 30
0.0
 11
219.0765686035155966
 21
10.4574127197265607
 31
0.0
  0
LINE
  5
2A2
100
AcDbEntity
100
AcDbLine
  8
CADDY_2
 62
140
370
-1
  6
CONTINUOUS
 10
219.6763305664061932
 20
10.4574127197265607
 30
0.0
 11
220.1261749267578125
 21
10.4574127197265607
 31
0.0
  0
LINE
  5
2A3
100
AcDbEntity
100
AcDbLine
  8
CADDY_2
 62
140
370
-1
  6
CONTINUOUS
 10
221.5506286621094034
 20
10.4574127197265607
 30
0.0
 11
222.150390625
 21
10.4574127197265607
 31
0.0
  0
LINE
  5
2A4
100
AcDbEntity
100
AcDbLine
  8
CADDY_2
 62
140
370
-1
  6
CONTINUOUS
 10
205.8067169189453125
 20
10.5599060058593803
 30
0.0
 11
207.1561889648438068
 21
10.5599060058593803
 31
0.0
  0
LINE
  5
2A5
100
AcDbEntity
100
AcDbLine
  8
CADDY_2
 62
140
370
-1
  6
CONTINUOUS
 10
208.8805389404296875
 20
10.5599060058593803
 30
0.0
 11
210.9047546386719034
 21
10.5599060058593803
 31
0.0
  0
LINE
  5
2A6
100
AcDbEntity
100
AcDbLine
  8
CADDY_2
 62
140
370
-1
  6
CONTINUOUS
 10
211.3545532226561932
 20
10.5599060058593803
 30
0.0
 11
211.8793792724609091
 21
10.5599060058593803
 31
0.0
  0
LINE
  5
2A7
100
AcDbEntity
100
AcDbLine
  8
CADDY_2
 62
140
370
-1
  6
CONTINUOUS
 10
213.1538696289061932
 20
10.5599060058593803
 30
0.0
 11
213.6786804199219034
 21
10.5599060058593803
 31
0.0
  0
LINE
  5
2A8
100
AcDbEntity
100
AcDbLine
  8
CADDY_2
 62
140
370
-1
  6
CONTINUOUS
 10
214.2784576416015909
 20
10.5599060058593803
 30
0.0
 11
216.3776245117188068
 21
10.5599060058593803
 31
0.0
  0
LINE
  5
2A9
100
AcDbEntity
100
AcDbLine
  8
CADDY_2
 62
140
370
-1
  6
CONTINUOUS
 10
216.9024200439453125
 20
10.5599060058593803
 30
0.0
 11
219.1515502929688068
 21
10.5599060058593803
 31
0.0
  0
LINE
  5
2AA
100
AcDbEntity
100
AcDbLine
  8
CADDY_2
 62
140
370
-1
  6
CONTINUOUS
 10
219.6763305664061932
 20
10.5599060058593803
 30
0.0
 11
220.2011566162109091
 21
10.5599060058593803
 31
0.0
  0
LINE
  5
2AB
100
AcDbEntity
100
AcDbLine
  8
CADDY_2
 62
140
370
-1
  6
CONTINUOUS
 10
221.5506286621094034
 20
10.5599060058593803
 30
0.0
 11
222.150390625
 21
10.5599060058593803
 31
0.0
  0
LINE
  5
2AC
100
AcDbEntity
100
AcDbLine
  8
CADDY_2
 62
140
370
-1
  6
CONTINUOUS
 10
205.8816986083984091
 20
10.6623992919921893
 30
0.0
 11
207.1561889648438068
 21
10.6623992919921893
 31
0.0
  0
LINE
  5
2AD
100
AcDbEntity
100
AcDbLine
  8
CADDY_2
 62
140
370
-1
  6
CONTINUOUS
 10
208.8805389404296875
 20
10.6623992919921893
 30
0.0
 11
210.9047546386719034
 21
10.6623992919921893
 31
0.0
  0
LINE
  5
2AE
100
AcDbEntity
100
AcDbLine
  8
CADDY_2
 62
140
370
-1
  6
CONTINUOUS
 10
211.3545532226561932
 20
10.6623992919921893
 30
0.0
 11
211.8793792724609091
 21
10.6623992919921893
 31
0.0
  0
LINE
  5
2AF
100
AcDbEntity
100
AcDbLine
  8
CADDY_2
 62
140
370
-1
  6
CONTINUOUS
 10
213.1538696289061932
 20
10.6623992919921893
 30
0.0
 11
213.6786804199219034
 21
10.6623992919921893
 31
0.0
  0
LINE
  5
2B0
100
AcDbEntity
100
AcDbLine
  8
CADDY_2
 62
140
370
-1
  6
CONTINUOUS
 10
214.2784576416015909
 20
10.6623992919921893
 30
0.0
 11
214.8032379150390909
 21
10.6623992919921893
 31
0.0
  0
LINE
  5
2B1
100
AcDbEntity
100
AcDbLine
  8
CADDY_2
 62
140
370
-1
  6
CONTINUOUS
 10
215.0281677246094034
 20
10.6623992919921893
 30
0.0
 11
216.3776245117188068
 21
10.6623992919921893
 31
0.0
  0
LINE
  5
2B2
100
AcDbEntity
100
AcDbLine
  8
CADDY_2
 62
140
370
-1
  6
CONTINUOUS
 10
216.9024200439453125
 20
10.6623992919921893
 30
0.0
 11
217.4272308349609091
 21
10.6623992919921893
 31
0.0
  0
LINE
  5
2B3
100
AcDbEntity
100
AcDbLine
  8
CADDY_2
 62
140
370
-1
  6
CONTINUOUS
 10
217.6521453857421875
 20
10.6623992919921893
 30
0.0
 11
219.2265472412109091
 21
10.6623992919921893
 31
0.0
  0
LINE
  5
2B4
100
AcDbEntity
100
AcDbLine
  8
CADDY_2
 62
140
370
-1
  6
CONTINUOUS
 10
219.6763305664061932
 20
10.6623992919921893
 30
0.0
 11
220.2761077880859091
 21
10.6623992919921893
 31
0.0
  0
LINE
  5
2B5
100
AcDbEntity
100
AcDbLine
  8
CADDY_2
 62
140
370
-1
  6
CONTINUOUS
 10
221.4756469726561932
 20
10.6623992919921893
 30
0.0
 11
222.0754089355469034
 21
10.6623992919921893
 31
0.0
  0
LINE
  5
2B6
100
AcDbEntity
100
AcDbLine
  8
CADDY_2
 62
140
370
-1
  6
CONTINUOUS
 10
206.0316314697265909
 20
10.764892578125
 30
0.0
 11
207.2311706542969034
 21
10.764892578125
 31
0.0
  0
LINE
  5
2B7
100
AcDbEntity
100
AcDbLine
  8
CADDY_2
 62
140
370
-1
  6
CONTINUOUS
 10
208.7305908203125
 20
10.764892578125
 30
0.0
 11
209.6302337646484091
 21
10.764892578125
 31
0.0
  0
LINE
  5
2B8
100
AcDbEntity
100
AcDbLine
  8
CADDY_2
 62
140
370
-1
  6
CONTINUOUS
 10
210.4549255371094034
 20
10.764892578125
 30
0.0
 11
210.9047546386719034
 21
10.764892578125
 31
0.0
  0
LINE
  5
2B9
100
AcDbEntity
100
AcDbLine
  8
CADDY_2
 62
140
370
-1
  6
CONTINUOUS
 10
211.3545532226561932
 20
10.764892578125
 30
0.0
 11
211.8793792724609091
 21
10.764892578125
 31
0.0
  0
LINE
  5
2BA
100
AcDbEntity
100
AcDbLine
  8
CADDY_2
 62
140
370
-1
  6
CONTINUOUS
 10
213.1538696289061932
 20
10.764892578125
 30
0.0
 11
213.6036987304688068
 21
10.764892578125
 31
0.0
  0
LINE
  5
2BB
100
AcDbEntity
100
AcDbLine
  8
CADDY_2
 62
140
370
-1
  6
CONTINUOUS
 10
214.2784576416015909
 20
10.764892578125
 30
0.0
 11
214.8032379150390909
 21
10.764892578125
 31
0.0
  0
LINE
  5
2BC
100
AcDbEntity
100
AcDbLine
  8
CADDY_2
 62
140
370
-1
  6
CONTINUOUS
 10
216.9024200439453125
 20
10.764892578125
 30
0.0
 11
217.4272308349609091
 21
10.764892578125
 31
0.0
  0
LINE
  5
2BD
100
AcDbEntity
100
AcDbLine
  8
CADDY_2
 62
140
370
-1
  6
CONTINUOUS
 10
218.7017211914061932
 20
10.764892578125
 30
0.0
 11
219.2265472412109091
 21
10.764892578125
 31
0.0
  0
LINE
  5
2BE
100
AcDbEntity
100
AcDbLine
  8
CADDY_2
 62
140
370
-1
  6
CONTINUOUS
 10
219.7513122558594034
 20
10.764892578125
 30
0.0
 11
220.2761077880859091
 21
10.764892578125
 31
0.0
  0
LINE
  5
2BF
100
AcDbEntity
100
AcDbLine
  8
CADDY_2
 62
140
370
-1
  6
CONTINUOUS
 10
221.4756469726561932
 20
10.764892578125
 30
0.0
 11
222.0754089355469034
 21
10.764892578125
 31
0.0
  0
LINE
  5
2C0
100
AcDbEntity
100
AcDbLine
  8
CADDY_2
 62
140
370
-1
  6
CONTINUOUS
 10
206.1066131591796875
 20
10.8673858642578107
 30
0.0
 11
207.2311706542969034
 21
10.8673858642578107
 31
0.0
  0
LINE
  5
2C1
100
AcDbEntity
100
AcDbLine
  8
CADDY_2
 62
140
370
-1
  6
CONTINUOUS
 10
208.7305908203125
 20
10.8673858642578107
 30
0.0
 11
209.4803009033203125
 21
10.8673858642578107
 31
0.0
  0
LINE
  5
2C2
100
AcDbEntity
100
AcDbLine
  8
CADDY_2
 62
140
370
-1
  6
CONTINUOUS
 10
210.6048736572265909
 20
10.8673858642578107
 30
0.0
 11
210.9047546386719034
 21
10.8673858642578107
 31
0.0
  0
LINE
  5
2C3
100
AcDbEntity
100
AcDbLine
  8
CADDY_2
 62
140
370
-1
  6
CONTINUOUS
 10
211.3545532226561932
 20
10.8673858642578107
 30
0.0
 11
211.8793792724609091
 21
10.8673858642578107
 31
0.0
  0
LINE
  5
2C4
100
AcDbEntity
100
AcDbLine
  8
CADDY_2
 62
140
370
-1
  6
CONTINUOUS
 10
213.1538696289061932
 20
10.8673858642578107
 30
0.0
 11
213.6786804199219034
 21
10.8673858642578107
 31
0.0
  0
LINE
  5
2C5
100
AcDbEntity
100
AcDbLine
  8
CADDY_2
 62
140
370
-1
  6
CONTINUOUS
 10
214.2784576416015909
 20
10.8673858642578107
 30
0.0
 11
214.8032379150390909
 21
10.8673858642578107
 31
0.0
  0
LINE
  5
2C6
100
AcDbEntity
100
AcDbLine
  8
CADDY_2
 62
140
370
-1
  6
CONTINUOUS
 10
216.9024200439453125
 20
10.8673858642578107
 30
0.0
 11
217.4272308349609091
 21
10.8673858642578107
 31
0.0
  0
LINE
  5
2C7
100
AcDbEntity
100
AcDbLine
  8
CADDY_2
 62
140
370
-1
  6
CONTINUOUS
 10
218.7767028808594034
 20
10.8673858642578107
 30
0.0
 11
219.3014984130859091
 21
10.8673858642578107
 31
0.0
  0
LINE
  5
2C8
100
AcDbEntity
100
AcDbLine
  8
CADDY_2
 62
140
370
-1
  6
CONTINUOUS
 10
219.8262939453125
 20
10.8673858642578107
 30
0.0
 11
222.0004730224609091
 21
10.8673858642578107
 31
0.0
  0
LINE
  5
2C9
100
AcDbEntity
100
AcDbLine
  8
CADDY_2
 62
140
370
-1
  6
CONTINUOUS
 10
206.1815490722655966
 20
10.9698791503906197
 30
0.0
 11
207.30615234375
 21
10.9698791503906197
 31
0.0
  0
LINE
  5
2CA
100
AcDbEntity
100
AcDbLine
  8
CADDY_2
 62
140
370
-1
  6
CONTINUOUS
 10
208.6556091308594034
 20
10.9698791503906197
 30
0.0
 11
209.2553863525390909
 21
10.9698791503906197
 31
0.0
  0
LINE
  5
2CB
100
AcDbEntity
100
AcDbLine
  8
CADDY_2
 62
140
370
-1
  6
CONTINUOUS
 10
210.7547912597655966
 20
10.9698791503906197
 30
0.0
 11
210.9047546386719034
 21
10.9698791503906197
 31
0.0
  0
LINE
  5
2CC
100
AcDbEntity
100
AcDbLine
  8
CADDY_2
 62
140
370
-1
  6
CONTINUOUS
 10
211.3545532226561932
 20
10.9698791503906197
 30
0.0
 11
211.8793792724609091
 21
10.9698791503906197
 31
0.0
  0
LINE
  5
2CD
100
AcDbEntity
100
AcDbLine
  8
CADDY_2
 62
140
370
-1
  6
CONTINUOUS
 10
213.1538696289061932
 20
10.9698791503906197
 30
0.0
 11
213.6786804199219034
 21
10.9698791503906197
 31
0.0
  0
LINE
  5
2CE
100
AcDbEntity
100
AcDbLine
  8
CADDY_2
 62
140
370
-1
  6
CONTINUOUS
 10
214.2784576416015909
 20
10.9698791503906197
 30
0.0
 11
214.8032379150390909
 21
10.9698791503906197
 31
0.0
  0
LINE
  5
2CF
100
AcDbEntity
100
AcDbLine
  8
CADDY_2
 62
140
370
-1
  6
CONTINUOUS
 10
216.9024200439453125
 20
10.9698791503906197
 30
0.0
 11
217.4272308349609091
 21
10.9698791503906197
 31
0.0
  0
LINE
  5
2D0
100
AcDbEntity
100
AcDbLine
  8
CADDY_2
 62
140
370
-1
  6
CONTINUOUS
 10
218.7767028808594034
 20
10.9698791503906197
 30
0.0
 11
219.3014984130859091
 21
10.9698791503906197
 31
0.0
  0
LINE
  5
2D1
100
AcDbEntity
100
AcDbLine
  8
CADDY_2
 62
140
370
-1
  6
CONTINUOUS
 10
219.8262939453125
 20
10.9698791503906197
 30
0.0
 11
221.8505249023438068
 21
10.9698791503906197
 31
0.0
  0
LINE
  5
2D2
100
AcDbEntity
100
AcDbLine
  8
CADDY_2
 62
140
370
-1
  6
CONTINUOUS
 10
206.1815490722655966
 20
11.0723724365234393
 30
0.0
 11
207.30615234375
 21
11.0723724365234393
 31
0.0
  0
LINE
  5
2D3
100
AcDbEntity
100
AcDbLine
  8
CADDY_2
 62
140
370
-1
  6
CONTINUOUS
 10
208.6556091308594034
 20
11.0723724365234393
 30
0.0
 11
209.1804046630859091
 21
11.0723724365234393
 31
0.0
  0
LINE
  5
2D4
100
AcDbEntity
100
AcDbLine
  8
CADDY_2
 62
140
370
-1
  6
CONTINUOUS
 10
210.8297729492188068
 20
11.0723724365234393
 30
0.0
 11
210.9047546386719034
 21
11.0723724365234393
 31
0.0
  0
LINE
  5
2D5
100
AcDbEntity
100
AcDbLine
  8
CADDY_2
 62
140
370
-1
  6
CONTINUOUS
 10
211.3545532226561932
 20
11.0723724365234393
 30
0.0
 11
211.8793792724609091
 21
11.0723724365234393
 31
0.0
  0
LINE
  5
2D6
100
AcDbEntity
100
AcDbLine
  8
CADDY_2
 62
140
370
-1
  6
CONTINUOUS
 10
213.1538696289061932
 20
11.0723724365234393
 30
0.0
 11
213.6786804199219034
 21
11.0723724365234393
 31
0.0
  0
LINE
  5
2D7
100
AcDbEntity
100
AcDbLine
  8
CADDY_2
 62
140
370
-1
  6
CONTINUOUS
 10
214.2784576416015909
 20
11.0723724365234393
 30
0.0
 11
214.8032379150390909
 21
11.0723724365234393
 31
0.0
  0
LINE
  5
2D8
100
AcDbEntity
100
AcDbLine
  8
CADDY_2
 62
140
370
-1
  6
CONTINUOUS
 10
216.9024200439453125
 20
11.0723724365234393
 30
0.0
 11
217.4272308349609091
 21
11.0723724365234393
 31
0.0
  0
LINE
  5
2D9
100
AcDbEntity
100
AcDbLine
  8
CADDY_2
 62
140
370
-1
  6
CONTINUOUS
 10
218.7767028808594034
 20
11.0723724365234393
 30
0.0
 11
219.3014984130859091
 21
11.0723724365234393
 31
0.0
  0
LINE
  5
2DA
100
AcDbEntity
100
AcDbLine
  8
CADDY_2
 62
140
370
-1
  6
CONTINUOUS
 10
219.8262939453125
 20
11.0723724365234393
 30
0.0
 11
221.9254913330078125
 21
11.0723724365234393
 31
0.0
  0
LINE
  5
2DB
100
AcDbEntity
100
AcDbLine
  8
CADDY_2
 62
140
370
-1
  6
CONTINUOUS
 10
206.3315277099609091
 20
11.17486572265625
 30
0.0
 11
207.30615234375
 21
11.17486572265625
 31
0.0
  0
LINE
  5
2DC
100
AcDbEntity
100
AcDbLine
  8
CADDY_2
 62
140
370
-1
  6
CONTINUOUS
 10
208.6556091308594034
 20
11.17486572265625
 30
0.0
 11
209.1054534912109091
 21
11.17486572265625
 31
0.0
  0
LINE
  5
2DD
100
AcDbEntity
100
AcDbLine
  8
CADDY_2
 62
140
370
-1
  6
CONTINUOUS
 10
211.3545532226561932
 20
11.17486572265625
 30
0.0
 11
211.8793792724609091
 21
11.17486572265625
 31
0.0
  0
LINE
  5
2DE
100
AcDbEntity
100
AcDbLine
  8
CADDY_2
 62
140
370
-1
  6
CONTINUOUS
 10
213.1538696289061932
 20
11.17486572265625
 30
0.0
 11
213.6786804199219034
 21
11.17486572265625
 31
0.0
  0
LINE
  5
2DF
100
AcDbEntity
100
AcDbLine
  8
CADDY_2
 62
140
370
-1
  6
CONTINUOUS
 10
214.2784576416015909
 20
11.17486572265625
 30
0.0
 11
214.8032379150390909
 21
11.17486572265625
 31
0.0
  0
LINE
  5
2E0
100
AcDbEntity
100
AcDbLine
  8
CADDY_2
 62
140
370
-1
  6
CONTINUOUS
 10
216.9024200439453125
 20
11.17486572265625
 30
0.0
 11
217.4272308349609091
 21
11.17486572265625
 31
0.0
  0
LINE
  5
2E1
100
AcDbEntity
100
AcDbLine
  8
CADDY_2
 62
140
370
-1
  6
CONTINUOUS
 10
218.7767028808594034
 20
11.17486572265625
 30
0.0
 11
219.3014984130859091
 21
11.17486572265625
 31
0.0
  0
LINE
  5
2E2
100
AcDbEntity
100
AcDbLine
  8
CADDY_2
 62
140
370
-1
  6
CONTINUOUS
 10
219.9012451171875
 20
11.17486572265625
 30
0.0
 11
221.8505249023438068
 21
11.17486572265625
 31
0.0
  0
LINE
  5
2E3
100
AcDbEntity
100
AcDbLine
  8
CADDY_2
 62
140
370
-1
  6
CONTINUOUS
 10
206.3315277099609091
 20
11.2773590087890607
 30
0.0
 11
207.30615234375
 21
11.2773590087890607
 31
0.0
  0
LINE
  5
2E4
100
AcDbEntity
100
AcDbLine
  8
CADDY_2
 62
140
370
-1
  6
CONTINUOUS
 10
208.5806274414061932
 20
11.2773590087890607
 30
0.0
 11
209.1054534912109091
 21
11.2773590087890607
 31
0.0
  0
LINE
  5
2E5
100
AcDbEntity
100
AcDbLine
  8
CADDY_2
 62
140
370
-1
  6
CONTINUOUS
 10
211.3545532226561932
 20
11.2773590087890607
 30
0.0
 11
211.8793792724609091
 21
11.2773590087890607
 31
0.0
  0
LINE
  5
2E6
100
AcDbEntity
100
AcDbLine
  8
CADDY_2
 62
140
370
-1
  6
CONTINUOUS
 10
213.1538696289061932
 20
11.2773590087890607
 30
0.0
 11
213.6786804199219034
 21
11.2773590087890607
 31
0.0
  0
LINE
  5
2E7
100
AcDbEntity
100
AcDbLine
  8
CADDY_2
 62
140
370
-1
  6
CONTINUOUS
 10
214.2784576416015909
 20
11.2773590087890607
 30
0.0
 11
214.8032379150390909
 21
11.2773590087890607
 31
0.0
  0
LINE
  5
2E8
100
AcDbEntity
100
AcDbLine
  8
CADDY_2
 62
140
370
-1
  6
CONTINUOUS
 10
216.9024200439453125
 20
11.2773590087890607
 30
0.0
 11
217.4272308349609091
 21
11.2773590087890607
 31
0.0
  0
LINE
  5
2E9
100
AcDbEntity
100
AcDbLine
  8
CADDY_2
 62
140
370
-1
  6
CONTINUOUS
 10
218.7017211914061932
 20
11.2773590087890607
 30
0.0
 11
219.3014984130859091
 21
11.2773590087890607
 31
0.0
  0
LINE
  5
2EA
100
AcDbEntity
100
AcDbLine
  8
CADDY_2
 62
140
370
-1
  6
CONTINUOUS
 10
219.9762268066405966
 20
11.2773590087890607
 30
0.0
 11
221.8505249023438068
 21
11.2773590087890607
 31
0.0
  0
LINE
  5
2EB
100
AcDbEntity
100
AcDbLine
  8
CADDY_2
 62
140
370
-1
  6
CONTINUOUS
 10
206.3315277099609091
 20
11.3798522949218803
 30
0.0
 11
207.30615234375
 21
11.3798522949218803
 31
0.0
  0
LINE
  5
2EC
100
AcDbEntity
100
AcDbLine
  8
CADDY_2
 62
140
370
-1
  6
CONTINUOUS
 10
208.5806274414061932
 20
11.3798522949218803
 30
0.0
 11
209.0304718017578125
 21
11.3798522949218803
 31
0.0
  0
LINE
  5
2ED
100
AcDbEntity
100
AcDbLine
  8
CADDY_2
 62
140
370
-1
  6
CONTINUOUS
 10
211.3545532226561932
 20
11.3798522949218803
 30
0.0
 11
211.8793792724609091
 21
11.3798522949218803
 31
0.0
  0
LINE
  5
2EE
100
AcDbEntity
100
AcDbLine
  8
CADDY_2
 62
140
370
-1
  6
CONTINUOUS
 10
213.1538696289061932
 20
11.3798522949218803
 30
0.0
 11
213.6036987304688068
 21
11.3798522949218803
 31
0.0
  0
LINE
  5
2EF
100
AcDbEntity
100
AcDbLine
  8
CADDY_2
 62
140
370
-1
  6
CONTINUOUS
 10
214.2784576416015909
 20
11.3798522949218803
 30
0.0
 11
214.8032379150390909
 21
11.3798522949218803
 31
0.0
  0
LINE
  5
2F0
100
AcDbEntity
100
AcDbLine
  8
CADDY_2
 62
140
370
-1
  6
CONTINUOUS
 10
216.9024200439453125
 20
11.3798522949218803
 30
0.0
 11
217.4272308349609091
 21
11.3798522949218803
 31
0.0
  0
LINE
  5
2F1
100
AcDbEntity
100
AcDbLine
  8
CADDY_2
 62
140
370
-1
  6
CONTINUOUS
 10
218.6267700195311932
 20
11.3798522949218803
 30
0.0
 11
219.2265472412109091
 21
11.3798522949218803
 31
0.0
  0
LINE
  5
2F2
100
AcDbEntity
100
AcDbLine
  8
CADDY_2
 62
140
370
-1
  6
CONTINUOUS
 10
219.9762268066405966
 20
11.3798522949218803
 30
0.0
 11
220.5010223388671875
 21
11.3798522949218803
 31
0.0
  0
LINE
  5
2F3
100
AcDbEntity
100
AcDbLine
  8
CADDY_2
 62
140
370
-1
  6
CONTINUOUS
 10
221.2507476806640909
 20
11.3798522949218803
 30
0.0
 11
221.8505249023438068
 21
11.3798522949218803
 31
0.0
  0
LINE
  5
2F4
100
AcDbEntity
100
AcDbLine
  8
CADDY_2
 62
140
370
-1
  6
CONTINUOUS
 10
206.3315277099609091
 20
11.4823455810546893
 30
0.0
 11
207.381103515625
 21
11.4823455810546893
 31
0.0
  0
LINE
  5
2F5
100
AcDbEntity
100
AcDbLine
  8
CADDY_2
 62
140
370
-1
  6
CONTINUOUS
 10
208.5806274414061932
 20
11.4823455810546893
 30
0.0
 11
209.0304718017578125
 21
11.4823455810546893
 31
0.0
  0
LINE
  5
2F6
100
AcDbEntity
100
AcDbLine
  8
CADDY_2
 62
140
370
-1
  6
CONTINUOUS
 10
211.3545532226561932
 20
11.4823455810546893
 30
0.0
 11
213.6036987304688068
 21
11.4823455810546893
 31
0.0
  0
LINE
  5
2F7
100
AcDbEntity
100
AcDbLine
  8
CADDY_2
 62
140
370
-1
  6
CONTINUOUS
 10
214.2784576416015909
 20
11.4823455810546893
 30
0.0
 11
216.2276916503905966
 21
11.4823455810546893
 31
0.0
  0
LINE
  5
2F8
100
AcDbEntity
100
AcDbLine
  8
CADDY_2
 62
140
370
-1
  6
CONTINUOUS
 10
216.9024200439453125
 20
11.4823455810546893
 30
0.0
 11
219.1515502929688068
 21
11.4823455810546893
 31
0.0
  0
LINE
  5
2F9
100
AcDbEntity
100
AcDbLine
  8
CADDY_2
 62
140
370
-1
  6
CONTINUOUS
 10
220.0512237548828125
 20
11.4823455810546893
 30
0.0
 11
220.5010223388671875
 21
11.4823455810546893
 31
0.0
  0
LINE
  5
2FA
100
AcDbEntity
100
AcDbLine
  8
CADDY_2
 62
140
370
-1
  6
CONTINUOUS
 10
221.17578125
 20
11.4823455810546893
 30
0.0
 11
221.7755584716796875
 21
11.4823455810546893
 31
0.0
  0
LINE
  5
2FB
100
AcDbEntity
100
AcDbLine
  8
CADDY_2
 62
140
370
-1
  6
CONTINUOUS
 10
206.3315277099609091
 20
11.5848236083984393
 30
0.0
 11
207.381103515625
 21
11.5848236083984393
 31
0.0
  0
LINE
  5
2FC
100
AcDbEntity
100
AcDbLine
  8
CADDY_2
 62
140
370
-1
  6
CONTINUOUS
 10
208.5806274414061932
 20
11.5848236083984393
 30
0.0
 11
209.0304718017578125
 21
11.5848236083984393
 31
0.0
  0
LINE
  5
2FD
100
AcDbEntity
100
AcDbLine
  8
CADDY_2
 62
140
370
-1
  6
CONTINUOUS
 10
211.3545532226561932
 20
11.5848236083984393
 30
0.0
 11
213.6036987304688068
 21
11.5848236083984393
 31
0.0
  0
LINE
  5
2FE
100
AcDbEntity
100
AcDbLine
  8
CADDY_2
 62
140
370
-1
  6
CONTINUOUS
 10
214.2784576416015909
 20
11.5848236083984393
 30
0.0
 11
216.2276916503905966
 21
11.5848236083984393
 31
0.0
  0
LINE
  5
2FF
100
AcDbEntity
100
AcDbLine
  8
CADDY_2
 62
140
370
-1
  6
CONTINUOUS
 10
216.9774017333984091
 20
11.5848236083984393
 30
0.0
 11
219.0765686035155966
 21
11.5848236083984393
 31
0.0
  0
LINE
  5
300
100
AcDbEntity
100
AcDbLine
  8
CADDY_2
 62
140
370
-1
  6
CONTINUOUS
 10
220.0512237548828125
 20
11.5848236083984393
 30
0.0
 11
220.5010223388671875
 21
11.5848236083984393
 31
0.0
  0
LINE
  5
301
100
AcDbEntity
100
AcDbLine
  8
CADDY_2
 62
140
370
-1
  6
CONTINUOUS
 10
221.17578125
 20
11.5848236083984393
 30
0.0
 11
221.7755584716796875
 21
11.5848236083984393
 31
0.0
  0
LINE
  5
302
100
AcDbEntity
100
AcDbLine
  8
CADDY_2
 62
140
370
-1
  6
CONTINUOUS
 10
206.3315277099609091
 20
11.6873321533203107
 30
0.0
 11
207.381103515625
 21
11.6873321533203107
 31
0.0
  0
LINE
  5
303
100
AcDbEntity
100
AcDbLine
  8
CADDY_2
 62
140
370
-1
  6
CONTINUOUS
 10
208.5806274414061932
 20
11.6873321533203107
 30
0.0
 11
209.0304718017578125
 21
11.6873321533203107
 31
0.0
  0
LINE
  5
304
100
AcDbEntity
100
AcDbLine
  8
CADDY_2
 62
140
370
-1
  6
CONTINUOUS
 10
211.3545532226561932
 20
11.6873321533203107
 30
0.0
 11
213.6786804199219034
 21
11.6873321533203107
 31
0.0
  0
LINE
  5
305
100
AcDbEntity
100
AcDbLine
  8
CADDY_2
 62
140
370
-1
  6
CONTINUOUS
 10
214.2784576416015909
 20
11.6873321533203107
 30
0.0
 11
216.2276916503905966
 21
11.6873321533203107
 31
0.0
  0
LINE
  5
306
100
AcDbEntity
100
AcDbLine
  8
CADDY_2
 62
140
370
-1
  6
CONTINUOUS
 10
216.9024200439453125
 20
11.6873321533203107
 30
0.0
 11
218.8516845703125
 21
11.6873321533203107
 31
0.0
  0
LINE
  5
307
100
AcDbEntity
100
AcDbLine
  8
CADDY_2
 62
140
370
-1
  6
CONTINUOUS
 10
220.0512237548828125
 20
11.6873321533203107
 30
0.0
 11
220.5760040283203125
 21
11.6873321533203107
 31
0.0
  0
LINE
  5
308
100
AcDbEntity
100
AcDbLine
  8
CADDY_2
 62
140
370
-1
  6
CONTINUOUS
 10
221.17578125
 20
11.6873321533203107
 30
0.0
 11
221.7005615234375
 21
11.6873321533203107
 31
0.0
  0
LINE
  5
309
100
AcDbEntity
100
AcDbLine
  8
CADDY_2
 62
140
370
-1
  6
CONTINUOUS
 10
206.3315277099609091
 20
11.7898254394531197
 30
0.0
 11
207.381103515625
 21
11.7898254394531197
 31
0.0
  0
LINE
  5
30A
100
AcDbEntity
100
AcDbLine
  8
CADDY_2
 62
140
370
-1
  6
CONTINUOUS
 10
208.5806274414061932
 20
11.7898254394531197
 30
0.0
 11
209.0304718017578125
 21
11.7898254394531197
 31
0.0
  0
LINE
  5
30B
100
AcDbEntity
100
AcDbLine
  8
CADDY_2
 62
140
370
-1
  6
CONTINUOUS
 10
211.3545532226561932
 20
11.7898254394531197
 30
0.0
 11
213.6786804199219034
 21
11.7898254394531197
 31
0.0
  0
LINE
  5
30C
100
AcDbEntity
100
AcDbLine
  8
CADDY_2
 62
140
370
-1
  6
CONTINUOUS
 10
214.2784576416015909
 20
11.7898254394531197
 30
0.0
 11
216.2276916503905966
 21
11.7898254394531197
 31
0.0
  0
LINE
  5
30D
100
AcDbEntity
100
AcDbLine
  8
CADDY_2
 62
140
370
-1
  6
CONTINUOUS
 10
216.9024200439453125
 20
11.7898254394531197
 30
0.0
 11
218.7767028808594034
 21
11.7898254394531197
 31
0.0
  0
LINE
  5
30E
100
AcDbEntity
100
AcDbLine
  8
CADDY_2
 62
140
370
-1
  6
CONTINUOUS
 10
220.1261749267578125
 20
11.7898254394531197
 30
0.0
 11
220.6509704589844034
 21
11.7898254394531197
 31
0.0
  0
LINE
  5
30F
100
AcDbEntity
100
AcDbLine
  8
CADDY_2
 62
140
370
-1
  6
CONTINUOUS
 10
221.17578125
 20
11.7898254394531197
 30
0.0
 11
221.7005615234375
 21
11.7898254394531197
 31
0.0
  0
LINE
  5
310
100
AcDbEntity
100
AcDbLine
  8
CADDY_2
 62
140
370
-1
  6
CONTINUOUS
 10
206.3315277099609091
 20
11.8923187255859393
 30
0.0
 11
207.30615234375
 21
11.8923187255859393
 31
0.0
  0
LINE
  5
311
100
AcDbEntity
100
AcDbLine
  8
CADDY_2
 62
140
370
-1
  6
CONTINUOUS
 10
208.5806274414061932
 20
11.8923187255859393
 30
0.0
 11
209.0304718017578125
 21
11.8923187255859393
 31
0.0
  0
LINE
  5
312
100
AcDbEntity
100
AcDbLine
  8
CADDY_2
 62
140
370
-1
  6
CONTINUOUS
 10
211.3545532226561932
 20
11.8923187255859393
 30
0.0
 11
213.6786804199219034
 21
11.8923187255859393
 31
0.0
  0
LINE
  5
313
100
AcDbEntity
100
AcDbLine
  8
CADDY_2
 62
140
370
-1
  6
CONTINUOUS
 10
214.2784576416015909
 20
11.8923187255859393
 30
0.0
 11
216.2276916503905966
 21
11.8923187255859393
 31
0.0
  0
LINE
  5
314
100
AcDbEntity
100
AcDbLine
  8
CADDY_2
 62
140
370
-1
  6
CONTINUOUS
 10
216.9024200439453125
 20
11.8923187255859393
 30
0.0
 11
218.9266357421875
 21
11.8923187255859393
 31
0.0
  0
LINE
  5
315
100
AcDbEntity
100
AcDbLine
  8
CADDY_2
 62
140
370
-1
  6
CONTINUOUS
 10
220.2011566162109091
 20
11.8923187255859393
 30
0.0
 11
220.6509704589844034
 21
11.8923187255859393
 31
0.0
  0
LINE
  5
316
100
AcDbEntity
100
AcDbLine
  8
CADDY_2
 62
140
370
-1
  6
CONTINUOUS
 10
221.1007995605469034
 20
11.8923187255859393
 30
0.0
 11
221.7005615234375
 21
11.8923187255859393
 31
0.0
  0
LINE
  5
317
100
AcDbEntity
100
AcDbLine
  8
CADDY_2
 62
140
370
-1
  6
CONTINUOUS
 10
206.3315277099609091
 20
11.99481201171875
 30
0.0
 11
207.30615234375
 21
11.99481201171875
 31
0.0
  0
LINE
  5
318
100
AcDbEntity
100
AcDbLine
  8
CADDY_2
 62
140
370
-1
  6
CONTINUOUS
 10
208.5806274414061932
 20
11.99481201171875
 30
0.0
 11
209.0304718017578125
 21
11.99481201171875
 31
0.0
  0
LINE
  5
319
100
AcDbEntity
100
AcDbLine
  8
CADDY_2
 62
140
370
-1
  6
CONTINUOUS
 10
211.3545532226561932
 20
11.99481201171875
 30
0.0
 11
211.8793792724609091
 21
11.99481201171875
 31
0.0
  0
LINE
  5
31A
100
AcDbEntity
100
AcDbLine
  8
CADDY_2
 62
140
370
-1
  6
CONTINUOUS
 10
212.1792449951171875
 20
11.99481201171875
 30
0.0
 11
213.6786804199219034
 21
11.99481201171875
 31
0.0
  0
LINE
  5
31B
100
AcDbEntity
100
AcDbLine
  8
CADDY_2
 62
140
370
-1
  6
CONTINUOUS
 10
214.2784576416015909
 20
11.99481201171875
 30
0.0
 11
214.8032379150390909
 21
11.99481201171875
 31
0.0
  0
LINE
  5
31C
100
AcDbEntity
100
AcDbLine
  8
CADDY_2
 62
140
370
-1
  6
CONTINUOUS
 10
215.0281677246094034
 20
11.99481201171875
 30
0.0
 11
216.2276916503905966
 21
11.99481201171875
 31
0.0
  0
LINE
  5
31D
100
AcDbEntity
100
AcDbLine
  8
CADDY_2
 62
140
370
-1
  6
CONTINUOUS
 10
216.9024200439453125
 20
11.99481201171875
 30
0.0
 11
217.4272308349609091
 21
11.99481201171875
 31
0.0
  0
LINE
  5
31E
100
AcDbEntity
100
AcDbLine
  8
CADDY_2
 62
140
370
-1
  6
CONTINUOUS
 10
217.6521453857421875
 20
11.99481201171875
 30
0.0
 11
218.9266357421875
 21
11.99481201171875
 31
0.0
  0
LINE
  5
31F
100
AcDbEntity
100
AcDbLine
  8
CADDY_2
 62
140
370
-1
  6
CONTINUOUS
 10
220.2011566162109091
 20
11.99481201171875
 30
0.0
 11
220.6509704589844034
 21
11.99481201171875
 31
0.0
  0
LINE
  5
320
100
AcDbEntity
100
AcDbLine
  8
CADDY_2
 62
140
370
-1
  6
CONTINUOUS
 10
221.0258483886719034
 20
11.99481201171875
 30
0.0
 11
221.6256103515625
 21
11.99481201171875
 31
0.0
  0
LINE
  5
321
100
AcDbEntity
100
AcDbLine
  8
CADDY_2
 62
140
370
-1
  6
CONTINUOUS
 10
206.3315277099609091
 20
12.0972900390625
 30
0.0
 11
207.30615234375
 21
12.0972900390625
 31
0.0
  0
LINE
  5
322
100
AcDbEntity
100
AcDbLine
  8
CADDY_2
 62
140
370
-1
  6
CONTINUOUS
 10
208.5806274414061932
 20
12.0972900390625
 30
0.0
 11
209.1054534912109091
 21
12.0972900390625
 31
0.0
  0
LINE
  5
323
100
AcDbEntity
100
AcDbLine
  8
CADDY_2
 62
140
370
-1
  6
CONTINUOUS
 10
211.3545532226561932
 20
12.0972900390625
 30
0.0
 11
211.8793792724609091
 21
12.0972900390625
 31
0.0
  0
LINE
  5
324
100
AcDbEntity
100
AcDbLine
  8
CADDY_2
 62
140
370
-1
  6
CONTINUOUS
 10
213.1538696289061932
 20
12.0972900390625
 30
0.0
 11
213.6786804199219034
 21
12.0972900390625
 31
0.0
  0
LINE
  5
325
100
AcDbEntity
100
AcDbLine
  8
CADDY_2
 62
140
370
-1
  6
CONTINUOUS
 10
214.2784576416015909
 20
12.0972900390625
 30
0.0
 11
214.8032379150390909
 21
12.0972900390625
 31
0.0
  0
LINE
  5
326
100
AcDbEntity
100
AcDbLine
  8
CADDY_2
 62
140
370
-1
  6
CONTINUOUS
 10
216.9024200439453125
 20
12.0972900390625
 30
0.0
 11
217.4272308349609091
 21
12.0972900390625
 31
0.0
  0
LINE
  5
327
100
AcDbEntity
100
AcDbLine
  8
CADDY_2
 62
140
370
-1
  6
CONTINUOUS
 10
218.6267700195311932
 20
12.0972900390625
 30
0.0
 11
219.0765686035155966
 21
12.0972900390625
 31
0.0
  0
LINE
  5
328
100
AcDbEntity
100
AcDbLine
  8
CADDY_2
 62
140
370
-1
  6
CONTINUOUS
 10
220.2011566162109091
 20
12.0972900390625
 30
0.0
 11
220.7259368896484091
 21
12.0972900390625
 31
0.0
  0
LINE
  5
329
100
AcDbEntity
100
AcDbLine
  8
CADDY_2
 62
140
370
-1
  6
CONTINUOUS
 10
221.0258483886719034
 20
12.0972900390625
 30
0.0
 11
221.5506286621094034
 21
12.0972900390625
 31
0.0
  0
LINE
  5
32A
100
AcDbEntity
100
AcDbLine
  8
CADDY_2
 62
140
370
-1
  6
CONTINUOUS
 10
206.2565460205078125
 20
12.1997985839843803
 30
0.0
 11
207.30615234375
 21
12.1997985839843803
 31
0.0
  0
LINE
  5
32B
100
AcDbEntity
100
AcDbLine
  8
CADDY_2
 62
140
370
-1
  6
CONTINUOUS
 10
208.6556091308594034
 20
12.1997985839843803
 30
0.0
 11
209.1804046630859091
 21
12.1997985839843803
 31
0.0
  0
LINE
  5
32C
100
AcDbEntity
100
AcDbLine
  8
CADDY_2
 62
140
370
-1
  6
CONTINUOUS
 10
210.9047546386719034
 20
12.1997985839843803
 30
0.0
 11
210.9047546386719034
 21
12.1997985839843803
 31
0.0
  0
LINE
  5
32D
100
AcDbEntity
100
AcDbLine
  8
CADDY_2
 62
140
370
-1
  6
CONTINUOUS
 10
211.3545532226561932
 20
12.1997985839843803
 30
0.0
 11
211.8793792724609091
 21
12.1997985839843803
 31
0.0
  0
LINE
  5
32E
100
AcDbEntity
100
AcDbLine
  8
CADDY_2
 62
140
370
-1
  6
CONTINUOUS
 10
213.1538696289061932
 20
12.1997985839843803
 30
0.0
 11
213.6786804199219034
 21
12.1997985839843803
 31
0.0
  0
LINE
  5
32F
100
AcDbEntity
100
AcDbLine
  8
CADDY_2
 62
140
370
-1
  6
CONTINUOUS
 10
214.2784576416015909
 20
12.1997985839843803
 30
0.0
 11
214.8032379150390909
 21
12.1997985839843803
 31
0.0
  0
LINE
  5
330
100
AcDbEntity
100
AcDbLine
  8
CADDY_2
 62
140
370
-1
  6
CONTINUOUS
 10
216.9024200439453125
 20
12.1997985839843803
 30
0.0
 11
217.4272308349609091
 21
12.1997985839843803
 31
0.0
  0
LINE
  5
331
100
AcDbEntity
100
AcDbLine
  8
CADDY_2
 62
140
370
-1
  6
CONTINUOUS
 10
218.6267700195311932
 20
12.1997985839843803
 30
0.0
 11
219.0765686035155966
 21
12.1997985839843803
 31
0.0
  0
LINE
  5
332
100
AcDbEntity
100
AcDbLine
  8
CADDY_2
 62
140
370
-1
  6
CONTINUOUS
 10
220.2761077880859091
 20
12.1997985839843803
 30
0.0
 11
220.8009185791015909
 21
12.1997985839843803
 31
0.0
  0
LINE
  5
333
100
AcDbEntity
100
AcDbLine
  8
CADDY_2
 62
140
370
-1
  6
CONTINUOUS
 10
221.0258483886719034
 20
12.1997985839843803
 30
0.0
 11
221.5506286621094034
 21
12.1997985839843803
 31
0.0
  0
LINE
  5
334
100
AcDbEntity
100
AcDbLine
  8
CADDY_2
 62
140
370
-1
  6
CONTINUOUS
 10
206.2565460205078125
 20
12.3022766113281197
 30
0.0
 11
207.30615234375
 21
12.3022766113281197
 31
0.0
  0
LINE
  5
335
100
AcDbEntity
100
AcDbLine
  8
CADDY_2
 62
140
370
-1
  6
CONTINUOUS
 10
208.6556091308594034
 20
12.3022766113281197
 30
0.0
 11
209.2553863525390909
 21
12.3022766113281197
 31
0.0
  0
LINE
  5
336
100
AcDbEntity
100
AcDbLine
  8
CADDY_2
 62
140
370
-1
  6
CONTINUOUS
 10
210.8297729492188068
 20
12.3022766113281197
 30
0.0
 11
210.9047546386719034
 21
12.3022766113281197
 31
0.0
  0
LINE
  5
337
100
AcDbEntity
100
AcDbLine
  8
CADDY_2
 62
140
370
-1
  6
CONTINUOUS
 10
211.3545532226561932
 20
12.3022766113281197
 30
0.0
 11
211.8793792724609091
 21
12.3022766113281197
 31
0.0
  0
LINE
  5
338
100
AcDbEntity
100
AcDbLine
  8
CADDY_2
 62
140
370
-1
  6
CONTINUOUS
 10
213.1538696289061932
 20
12.3022766113281197
 30
0.0
 11
213.6786804199219034
 21
12.3022766113281197
 31
0.0
  0
LINE
  5
339
100
AcDbEntity
100
AcDbLine
  8
CADDY_2
 62
140
370
-1
  6
CONTINUOUS
 10
214.2784576416015909
 20
12.3022766113281197
 30
0.0
 11
214.8032379150390909
 21
12.3022766113281197
 31
0.0
  0
LINE
  5
33A
100
AcDbEntity
100
AcDbLine
  8
CADDY_2
 62
140
370
-1
  6
CONTINUOUS
 10
216.9024200439453125
 20
12.3022766113281197
 30
0.0
 11
217.4272308349609091
 21
12.3022766113281197
 31
0.0
  0
LINE
  5
33B
100
AcDbEntity
100
AcDbLine
  8
CADDY_2
 62
140
370
-1
  6
CONTINUOUS
 10
218.7017211914061932
 20
12.3022766113281197
 30
0.0
 11
219.0765686035155966
 21
12.3022766113281197
 31
0.0
  0
LINE
  5
33C
100
AcDbEntity
100
AcDbLine
  8
CADDY_2
 62
140
370
-1
  6
CONTINUOUS
 10
220.3510894775390909
 20
12.3022766113281197
 30
0.0
 11
220.8009185791015909
 21
12.3022766113281197
 31
0.0
  0
LINE
  5
33D
100
AcDbEntity
100
AcDbLine
  8
CADDY_2
 62
140
370
-1
  6
CONTINUOUS
 10
220.9508666992188068
 20
12.3022766113281197
 30
0.0
 11
221.4756469726561932
 21
12.3022766113281197
 31
0.0
  0
LINE
  5
33E
100
AcDbEntity
100
AcDbLine
  8
CADDY_2
 62
140
370
-1
  6
CONTINUOUS
 10
206.1815490722655966
 20
12.4047698974609393
 30
0.0
 11
207.2311706542969034
 21
12.4047698974609393
 31
0.0
  0
LINE
  5
33F
100
AcDbEntity
100
AcDbLine
  8
CADDY_2
 62
140
370
-1
  6
CONTINUOUS
 10
208.7305908203125
 20
12.4047698974609393
 30
0.0
 11
209.4053192138671875
 21
12.4047698974609393
 31
0.0
  0
LINE
  5
340
100
AcDbEntity
100
AcDbLine
  8
CADDY_2
 62
140
370
-1
  6
CONTINUOUS
 10
210.6048736572265909
 20
12.4047698974609393
 30
0.0
 11
210.9047546386719034
 21
12.4047698974609393
 31
0.0
  0
LINE
  5
341
100
AcDbEntity
100
AcDbLine
  8
CADDY_2
 62
140
370
-1
  6
CONTINUOUS
 10
211.3545532226561932
 20
12.4047698974609393
 30
0.0
 11
211.8793792724609091
 21
12.4047698974609393
 31
0.0
  0
LINE
  5
342
100
AcDbEntity
100
AcDbLine
  8
CADDY_2
 62
140
370
-1
  6
CONTINUOUS
 10
213.1538696289061932
 20
12.4047698974609393
 30
0.0
 11
213.6786804199219034
 21
12.4047698974609393
 31
0.0
  0
LINE
  5
343
100
AcDbEntity
100
AcDbLine
  8
CADDY_2
 62
140
370
-1
  6
CONTINUOUS
 10
214.2784576416015909
 20
12.4047698974609393
 30
0.0
 11
214.8032379150390909
 21
12.4047698974609393
 31
0.0
  0
LINE
  5
344
100
AcDbEntity
100
AcDbLine
  8
CADDY_2
 62
140
370
-1
  6
CONTINUOUS
 10
216.9024200439453125
 20
12.4047698974609393
 30
0.0
 11
217.4272308349609091
 21
12.4047698974609393
 31
0.0
  0
LINE
  5
345
100
AcDbEntity
100
AcDbLine
  8
CADDY_2
 62
140
370
-1
  6
CONTINUOUS
 10
218.6267700195311932
 20
12.4047698974609393
 30
0.0
 11
219.0765686035155966
 21
12.4047698974609393
 31
0.0
  0
LINE
  5
346
100
AcDbEntity
100
AcDbLine
  8
CADDY_2
 62
140
370
-1
  6
CONTINUOUS
 10
220.3510894775390909
 20
12.4047698974609393
 30
0.0
 11
221.4756469726561932
 21
12.4047698974609393
 31
0.0
  0
LINE
  5
347
100
AcDbEntity
100
AcDbLine
  8
CADDY_2
 62
140
370
-1
  6
CONTINUOUS
 10
206.1066131591796875
 20
12.50726318359375
 30
0.0
 11
207.1561889648438068
 21
12.50726318359375
 31
0.0
  0
LINE
  5
348
100
AcDbEntity
100
AcDbLine
  8
CADDY_2
 62
140
370
-1
  6
CONTINUOUS
 10
208.7305908203125
 20
12.50726318359375
 30
0.0
 11
209.5552520751953125
 21
12.50726318359375
 31
0.0
  0
LINE
  5
349
100
AcDbEntity
100
AcDbLine
  8
CADDY_2
 62
140
370
-1
  6
CONTINUOUS
 10
210.4549255371094034
 20
12.50726318359375
 30
0.0
 11
210.9047546386719034
 21
12.50726318359375
 31
0.0
  0
LINE
  5
34A
100
AcDbEntity
100
AcDbLine
  8
CADDY_2
 62
140
370
-1
  6
CONTINUOUS
 10
211.3545532226561932
 20
12.50726318359375
 30
0.0
 11
211.8793792724609091
 21
12.50726318359375
 31
0.0
  0
LINE
  5
34B
100
AcDbEntity
100
AcDbLine
  8
CADDY_2
 62
140
370
-1
  6
CONTINUOUS
 10
213.1538696289061932
 20
12.50726318359375
 30
0.0
 11
213.6786804199219034
 21
12.50726318359375
 31
0.0
  0
LINE
  5
34C
100
AcDbEntity
100
AcDbLine
  8
CADDY_2
 62
140
370
-1
  6
CONTINUOUS
 10
214.2784576416015909
 20
12.50726318359375
 30
0.0
 11
214.8032379150390909
 21
12.50726318359375
 31
0.0
  0
LINE
  5
34D
100
AcDbEntity
100
AcDbLine
  8
CADDY_2
 62
140
370
-1
  6
CONTINUOUS
 10
216.9024200439453125
 20
12.50726318359375
 30
0.0
 11
217.4272308349609091
 21
12.50726318359375
 31
0.0
  0
LINE
  5
34E
100
AcDbEntity
100
AcDbLine
  8
CADDY_2
 62
140
370
-1
  6
CONTINUOUS
 10
218.6267700195311932
 20
12.50726318359375
 30
0.0
 11
219.0765686035155966
 21
12.50726318359375
 31
0.0
  0
LINE
  5
34F
100
AcDbEntity
100
AcDbLine
  8
CADDY_2
 62
140
370
-1
  6
CONTINUOUS
 10
220.3510894775390909
 20
12.50726318359375
 30
0.0
 11
221.4756469726561932
 21
12.50726318359375
 31
0.0
  0
LINE
  5
350
100
AcDbEntity
100
AcDbLine
  8
CADDY_2
 62
140
370
-1
  6
CONTINUOUS
 10
205.9566497802734091
 20
12.6097564697265607
 30
0.0
 11
207.1561889648438068
 21
12.6097564697265607
 31
0.0
  0
LINE
  5
351
100
AcDbEntity
100
AcDbLine
  8
CADDY_2
 62
140
370
-1
  6
CONTINUOUS
 10
208.8055419921875
 20
12.6097564697265607
 30
0.0
 11
210.9047546386719034
 21
12.6097564697265607
 31
0.0
  0
LINE
  5
352
100
AcDbEntity
100
AcDbLine
  8
CADDY_2
 62
140
370
-1
  6
CONTINUOUS
 10
211.3545532226561932
 20
12.6097564697265607
 30
0.0
 11
211.8793792724609091
 21
12.6097564697265607
 31
0.0
  0
LINE
  5
353
100
AcDbEntity
100
AcDbLine
  8
CADDY_2
 62
140
370
-1
  6
CONTINUOUS
 10
213.1538696289061932
 20
12.6097564697265607
 30
0.0
 11
213.6036987304688068
 21
12.6097564697265607
 31
0.0
  0
LINE
  5
354
100
AcDbEntity
100
AcDbLine
  8
CADDY_2
 62
140
370
-1
  6
CONTINUOUS
 10
214.2784576416015909
 20
12.6097564697265607
 30
0.0
 11
214.9531860351561932
 21
12.6097564697265607
 31
0.0
  0
LINE
  5
355
100
AcDbEntity
100
AcDbLine
  8
CADDY_2
 62
140
370
-1
  6
CONTINUOUS
 10
216.9024200439453125
 20
12.6097564697265607
 30
0.0
 11
217.4272308349609091
 21
12.6097564697265607
 31
0.0
  0
LINE
  5
356
100
AcDbEntity
100
AcDbLine
  8
CADDY_2
 62
140
370
-1
  6
CONTINUOUS
 10
218.476806640625
 20
12.6097564697265607
 30
0.0
 11
219.0765686035155966
 21
12.6097564697265607
 31
0.0
  0
LINE
  5
357
100
AcDbEntity
100
AcDbLine
  8
CADDY_2
 62
140
370
-1
  6
CONTINUOUS
 10
220.4260711669921875
 20
12.6097564697265607
 30
0.0
 11
221.4006958007811932
 21
12.6097564697265607
 31
0.0
  0
LINE
  5
358
100
AcDbEntity
100
AcDbLine
  8
CADDY_2
 62
140
370
-1
  6
CONTINUOUS
 10
205.8816986083984091
 20
12.7122497558593803
 30
0.0
 11
207.0812225341796875
 21
12.7122497558593803
 31
0.0
  0
LINE
  5
359
100
AcDbEntity
100
AcDbLine
  8
CADDY_2
 62
140
370
-1
  6
CONTINUOUS
 10
208.8805389404296875
 20
12.7122497558593803
 30
0.0
 11
210.9047546386719034
 21
12.7122497558593803
 31
0.0
  0
LINE
  5
35A
100
AcDbEntity
100
AcDbLine
  8
CADDY_2
 62
140
370
-1
  6
CONTINUOUS
 10
211.3545532226561932
 20
12.7122497558593803
 30
0.0
 11
211.8793792724609091
 21
12.7122497558593803
 31
0.0
  0
LINE
  5
35B
100
AcDbEntity
100
AcDbLine
  8
CADDY_2
 62
140
370
-1
  6
CONTINUOUS
 10
213.1538696289061932
 20
12.7122497558593803
 30
0.0
 11
213.6786804199219034
 21
12.7122497558593803
 31
0.0
  0
LINE
  5
35C
100
AcDbEntity
100
AcDbLine
  8
CADDY_2
 62
140
370
-1
  6
CONTINUOUS
 10
214.2784576416015909
 20
12.7122497558593803
 30
0.0
 11
216.3026428222655966
 21
12.7122497558593803
 31
0.0
  0
LINE
  5
35D
100
AcDbEntity
100
AcDbLine
  8
CADDY_2
 62
140
370
-1
  6
CONTINUOUS
 10
216.9024200439453125
 20
12.7122497558593803
 30
0.0
 11
219.0765686035155966
 21
12.7122497558593803
 31
0.0
  0
LINE
  5
35E
100
AcDbEntity
100
AcDbLine
  8
CADDY_2
 62
140
370
-1
  6
CONTINUOUS
 10
220.5010223388671875
 20
12.7122497558593803
 30
0.0
 11
221.3257141113280966
 21
12.7122497558593803
 31
0.0
  0
LINE
  5
35F
100
AcDbEntity
100
AcDbLine
  8
CADDY_2
 62
140
370
-1
  6
CONTINUOUS
 10
205.6567840576171875
 20
12.8147430419921893
 30
0.0
 11
207.0812225341796875
 21
12.8147430419921893
 31
0.0
  0
LINE
  5
360
100
AcDbEntity
100
AcDbLine
  8
CADDY_2
 62
140
370
-1
  6
CONTINUOUS
 10
208.9554901123046875
 20
12.8147430419921893
 30
0.0
 11
210.9047546386719034
 21
12.8147430419921893
 31
0.0
  0
LINE
  5
361
100
AcDbEntity
100
AcDbLine
  8
CADDY_2
 62
140
370
-1
  6
CONTINUOUS
 10
211.3545532226561932
 20
12.8147430419921893
 30
0.0
 11
211.8793792724609091
 21
12.8147430419921893
 31
0.0
  0
LINE
  5
362
100
AcDbEntity
100
AcDbLine
  8
CADDY_2
 62
140
370
-1
  6
CONTINUOUS
 10
213.1538696289061932
 20
12.8147430419921893
 30
0.0
 11
213.6786804199219034
 21
12.8147430419921893
 31
0.0
  0
LINE
  5
363
100
AcDbEntity
100
AcDbLine
  8
CADDY_2
 62
140
370
-1
  6
CONTINUOUS
 10
214.2784576416015909
 20
12.8147430419921893
 30
0.0
 11
216.3776245117188068
 21
12.8147430419921893
 31
0.0
  0
LINE
  5
364
100
AcDbEntity
100
AcDbLine
  8
CADDY_2
 62
140
370
-1
  6
CONTINUOUS
 10
216.9774017333984091
 20
12.8147430419921893
 30
0.0
 11
219.0016174316405966
 21
12.8147430419921893
 31
0.0
  0
LINE
  5
365
100
AcDbEntity
100
AcDbLine
  8
CADDY_2
 62
140
370
-1
  6
CONTINUOUS
 10
220.5010223388671875
 20
12.8147430419921893
 30
0.0
 11
221.3257141113280966
 21
12.8147430419921893
 31
0.0
  0
LINE
  5
366
100
AcDbEntity
100
AcDbLine
  8
CADDY_2
 62
140
370
-1
  6
CONTINUOUS
 10
205.3568725585938068
 20
12.917236328125
 30
0.0
 11
207.0062408447265909
 21
12.917236328125
 31
0.0
  0
LINE
  5
367
100
AcDbEntity
100
AcDbLine
  8
CADDY_2
 62
140
370
-1
  6
CONTINUOUS
 10
209.1054534912109091
 20
12.917236328125
 30
0.0
 11
210.7547912597655966
 21
12.917236328125
 31
0.0
  0
LINE
  5
368
100
AcDbEntity
100
AcDbLine
  8
CADDY_2
 62
140
370
-1
  6
CONTINUOUS
 10
211.3545532226561932
 20
12.917236328125
 30
0.0
 11
211.8793792724609091
 21
12.917236328125
 31
0.0
  0
LINE
  5
369
100
AcDbEntity
100
AcDbLine
  8
CADDY_2
 62
140
370
-1
  6
CONTINUOUS
 10
213.1538696289061932
 20
12.917236328125
 30
0.0
 11
213.6786804199219034
 21
12.917236328125
 31
0.0
  0
LINE
  5
36A
100
AcDbEntity
100
AcDbLine
  8
CADDY_2
 62
140
370
-1
  6
CONTINUOUS
 10
214.2784576416015909
 20
12.917236328125
 30
0.0
 11
216.3776245117188068
 21
12.917236328125
 31
0.0
  0
LINE
  5
36B
100
AcDbEntity
100
AcDbLine
  8
CADDY_2
 62
140
370
-1
  6
CONTINUOUS
 10
216.9024200439453125
 20
12.917236328125
 30
0.0
 11
218.9266357421875
 21
12.917236328125
 31
0.0
  0
LINE
  5
36C
100
AcDbEntity
100
AcDbLine
  8
CADDY_2
 62
140
370
-1
  6
CONTINUOUS
 10
220.5760040283203125
 20
12.917236328125
 30
0.0
 11
221.2507476806640909
 21
12.917236328125
 31
0.0
  0
LINE
  5
36D
100
AcDbEntity
100
AcDbLine
  8
CADDY_2
 62
140
370
-1
  6
CONTINUOUS
 10
205.2069396972655966
 20
13.0197296142578107
 30
0.0
 11
206.9312896728515909
 21
13.0197296142578107
 31
0.0
  0
LINE
  5
36E
100
AcDbEntity
100
AcDbLine
  8
CADDY_2
 62
140
370
-1
  6
CONTINUOUS
 10
209.2553863525390909
 20
13.0197296142578107
 30
0.0
 11
210.6798553466796875
 21
13.0197296142578107
 31
0.0
  0
LINE
  5
36F
100
AcDbEntity
100
AcDbLine
  8
CADDY_2
 62
140
370
-1
  6
CONTINUOUS
 10
211.3545532226561932
 20
13.0197296142578107
 30
0.0
 11
211.9543304443359091
 21
13.0197296142578107
 31
0.0
  0
LINE
  5
370
100
AcDbEntity
100
AcDbLine
  8
CADDY_2
 62
140
370
-1
  6
CONTINUOUS
 10
213.1538696289061932
 20
13.0197296142578107
 30
0.0
 11
213.6786804199219034
 21
13.0197296142578107
 31
0.0
  0
LINE
  5
371
100
AcDbEntity
100
AcDbLine
  8
CADDY_2
 62
140
370
-1
  6
CONTINUOUS
 10
214.2784576416015909
 20
13.0197296142578107
 30
0.0
 11
216.3776245117188068
 21
13.0197296142578107
 31
0.0
  0
LINE
  5
372
100
AcDbEntity
100
AcDbLine
  8
CADDY_2
 62
140
370
-1
  6
CONTINUOUS
 10
216.9024200439453125
 20
13.0197296142578107
 30
0.0
 11
218.7767028808594034
 21
13.0197296142578107
 31
0.0
  0
LINE
  5
373
100
AcDbEntity
100
AcDbLine
  8
CADDY_2
 62
140
370
-1
  6
CONTINUOUS
 10
220.5760040283203125
 20
13.0197296142578107
 30
0.0
 11
221.2507476806640909
 21
13.0197296142578107
 31
0.0
  0
LINE
  5
374
100
AcDbEntity
100
AcDbLine
  8
CADDY_2
 62
140
370
-1
  6
CONTINUOUS
 10
204.8320922851561932
 20
13.1222229003906197
 30
0.0
 11
206.8563079833984091
 21
13.1222229003906197
 31
0.0
  0
LINE
  5
375
100
AcDbEntity
100
AcDbLine
  8
CADDY_2
 62
140
370
-1
  6
CONTINUOUS
 10
209.6302337646484091
 20
13.1222229003906197
 30
0.0
 11
210.3049926757811932
 21
13.1222229003906197
 31
0.0
  0
LINE
  5
376
100
AcDbEntity
100
AcDbLine
  8
CADDY_2
 62
140
370
-1
  6
CONTINUOUS
 10
211.3545532226561932
 20
13.1222229003906197
 30
0.0
 11
211.9543304443359091
 21
13.1222229003906197
 31
0.0
  0
LINE
  5
377
100
AcDbEntity
100
AcDbLine
  8
CADDY_2
 62
140
370
-1
  6
CONTINUOUS
 10
213.1538696289061932
 20
13.1222229003906197
 30
0.0
 11
213.6786804199219034
 21
13.1222229003906197
 31
0.0
  0
LINE
  5
378
100
AcDbEntity
100
AcDbLine
  8
CADDY_2
 62
140
370
-1
  6
CONTINUOUS
 10
214.2784576416015909
 20
13.1222229003906197
 30
0.0
 11
216.3776245117188068
 21
13.1222229003906197
 31
0.0
  0
LINE
  5
379
100
AcDbEntity
100
AcDbLine
  8
CADDY_2
 62
140
370
-1
  6
CONTINUOUS
 10
216.9774017333984091
 20
13.1222229003906197
 30
0.0
 11
218.5517883300780966
 21
13.1222229003906197
 31
0.0
  0
LINE
  5
37A
100
AcDbEntity
100
AcDbLine
  8
CADDY_2
 62
140
370
-1
  6
CONTINUOUS
 10
220.5760040283203125
 20
13.1222229003906197
 30
0.0
 11
221.17578125
 21
13.1222229003906197
 31
0.0
  0
LINE
  5
37B
100
AcDbEntity
100
AcDbLine
  8
CADDY_2
 62
140
370
-1
  6
CONTINUOUS
 10
204.5322265625
 20
13.2247161865234393
 30
0.0
 11
206.7813262939453125
 21
13.2247161865234393
 31
0.0
  0
LINE
  5
37C
100
AcDbEntity
100
AcDbLine
  8
CADDY_2
 62
140
370
-1
  6
CONTINUOUS
 10
203.4826202392578125
 20
13.32720947265625
 30
0.0
 11
206.7063751220703125
 21
13.32720947265625
 31
0.0
  0
LINE
  5
37D
100
AcDbEntity
100
AcDbLine
  8
CADDY_2
 62
140
370
-1
  6
CONTINUOUS
 10
202.73291015625
 20
13.4297027587890607
 30
0.0
 11
206.6313934326171875
 21
13.4297027587890607
 31
0.0
  0
LINE
  5
37E
100
AcDbEntity
100
AcDbLine
  8
CADDY_2
 62
140
370
-1
  6
CONTINUOUS
 10
201.4584045410155966
 20
13.5321960449218803
 30
0.0
 11
206.4814605712890909
 21
13.5321960449218803
 31
0.0
  0
LINE
  5
37F
100
AcDbEntity
100
AcDbLine
  8
CADDY_2
 62
140
370
-1
  6
CONTINUOUS
 10
201.0835571289061932
 20
13.6346893310546893
 30
0.0
 11
206.4064788818359091
 21
13.6346893310546893
 31
0.0
  0
LINE
  5
380
100
AcDbEntity
100
AcDbLine
  8
CADDY_2
 62
140
370
-1
  6
CONTINUOUS
 10
200.7836761474609091
 20
13.7371826171875
 30
0.0
 11
206.2565460205078125
 21
13.7371826171875
 31
0.0
  0
LINE
  5
381
100
AcDbEntity
100
AcDbLine
  8
CADDY_2
 62
140
370
-1
  6
CONTINUOUS
 10
200.5587615966796875
 20
13.8396759033203107
 30
0.0
 11
206.1066131591796875
 21
13.8396759033203107
 31
0.0
  0
LINE
  5
382
100
AcDbEntity
100
AcDbLine
  8
CADDY_2
 62
140
370
-1
  6
CONTINUOUS
 10
200.4837799072265909
 20
13.9421691894531197
 30
0.0
 11
205.9566497802734091
 21
13.9421691894531197
 31
0.0
  0
LINE
  5
383
100
AcDbEntity
100
AcDbLine
  8
CADDY_2
 62
140
370
-1
  6
CONTINUOUS
 10
200.3338470458984091
 20
14.0446624755859393
 30
0.0
 11
205.7317657470703125
 21
14.0446624755859393
 31
0.0
  0
LINE
  5
384
100
AcDbEntity
100
AcDbLine
  8
CADDY_2
 62
140
370
-1
  6
CONTINUOUS
 10
200.2588653564453125
 20
14.14715576171875
 30
0.0
 11
205.5818023681640909
 21
14.14715576171875
 31
0.0
  0
LINE
  5
385
100
AcDbEntity
100
AcDbLine
  8
CADDY_2
 62
140
370
-1
  6
CONTINUOUS
 10
200.1089172363280966
 20
14.2496490478515607
 30
0.0
 11
205.2069396972655966
 21
14.2496490478515607
 31
0.0
  0
LINE
  5
386
100
AcDbEntity
100
AcDbLine
  8
CADDY_2
 62
140
370
-1
  6
CONTINUOUS
 10
200.033935546875
 20
14.3521423339843803
 30
0.0
 11
204.9820251464844034
 21
14.3521423339843803
 31
0.0
  0
LINE
  5
387
100
AcDbEntity
100
AcDbLine
  8
CADDY_2
 62
140
370
-1
  6
CONTINUOUS
 10
199.958984375
 20
14.4546356201171893
 30
0.0
 11
204.607177734375
 21
14.4546356201171893
 31
0.0
  0
LINE
  5
388
100
AcDbEntity
100
AcDbLine
  8
CADDY_2
 62
140
370
-1
  6
CONTINUOUS
 10
199.8840026855469034
 20
14.55712890625
 30
0.0
 11
203.5576019287109091
 21
14.55712890625
 31
0.0
  0
LINE
  5
389
100
AcDbEntity
100
AcDbLine
  8
CADDY_2
 62
140
370
-1
  6
CONTINUOUS
 10
199.8840026855469034
 20
14.6596221923828107
 30
0.0
 11
202.8828582763671875
 21
14.6596221923828107
 31
0.0
  0
LINE
  5
38A
100
AcDbEntity
100
AcDbLine
  8
CADDY_2
 62
140
370
-1
  6
CONTINUOUS
 10
199.7340698242188068
 20
14.7621154785156197
 30
0.0
 11
201.4584045410155966
 21
14.7621154785156197
 31
0.0
  0
LINE
  5
38B
100
AcDbEntity
100
AcDbLine
  8
CADDY_2
 62
140
370
-1
  6
CONTINUOUS
 10
199.7340698242188068
 20
14.8646087646484393
 30
0.0
 11
201.2334899902344034
 21
14.8646087646484393
 31
0.0
  0
LINE
  5
38C
100
AcDbEntity
100
AcDbLine
  8
CADDY_2
 62
140
370
-1
  6
CONTINUOUS
 10
199.7340698242188068
 20
14.96710205078125
 30
0.0
 11
201.0085601806640909
 21
14.96710205078125
 31
0.0
  0
LINE
  5
38D
100
AcDbEntity
100
AcDbLine
  8
CADDY_2
 62
140
370
-1
  6
CONTINUOUS
 10
199.6590881347655966
 20
15.0695953369140607
 30
0.0
 11
200.9336090087890909
 21
15.0695953369140607
 31
0.0
  0
LINE
  5
38E
100
AcDbEntity
100
AcDbLine
  8
CADDY_2
 62
140
370
-1
  6
CONTINUOUS
 10
199.6590881347655966
 20
15.1720886230468803
 30
0.0
 11
200.7836761474609091
 21
15.1720886230468803
 31
0.0
  0
LINE
  5
38F
100
AcDbEntity
100
AcDbLine
  8
CADDY_2
 62
140
370
-1
  6
CONTINUOUS
 10
199.6590881347655966
 20
15.2745819091796893
 30
0.0
 11
200.7086944580078125
 21
15.2745819091796893
 31
0.0
  0
LINE
  5
390
100
AcDbEntity
100
AcDbLine
  8
CADDY_2
 62
140
370
-1
  6
CONTINUOUS
 10
199.6590881347655966
 20
15.3770751953125
 30
0.0
 11
200.6337127685546875
 21
15.3770751953125
 31
0.0
  0
LINE
  5
391
100
AcDbEntity
100
AcDbLine
  8
CADDY_2
 62
140
370
-1
  6
CONTINUOUS
 10
199.5841369628905966
 20
15.4795684814453107
 30
0.0
 11
200.6337127685546875
 21
15.4795684814453107
 31
0.0
  0
LINE
  5
392
100
AcDbEntity
100
AcDbLine
  8
CADDY_2
 62
140
370
-1
  6
CONTINUOUS
 10
199.5841369628905966
 20
15.5820617675781197
 30
0.0
 11
200.5587615966796875
 21
15.5820617675781197
 31
0.0
  0
LINE
  5
393
100
AcDbEntity
100
AcDbLine
  8
CADDY_2
 62
140
370
-1
  6
CONTINUOUS
 10
199.5841369628905966
 20
15.6845550537109393
 30
0.0
 11
200.5587615966796875
 21
15.6845550537109393
 31
0.0
  0
LINE
  5
394
100
AcDbEntity
100
AcDbLine
  8
CADDY_2
 62
140
370
-1
  6
CONTINUOUS
 10
199.5841369628905966
 20
15.78704833984375
 30
0.0
 11
200.4837799072265909
 21
15.78704833984375
 31
0.0
  0
LINE
  5
395
100
AcDbEntity
100
AcDbLine
  8
CADDY_2
 62
140
370
-1
  6
CONTINUOUS
 10
199.5841369628905966
 20
15.8895416259765607
 30
0.0
 11
200.4837799072265909
 21
15.8895416259765607
 31
0.0
  0
LINE
  5
396
100
AcDbEntity
100
AcDbLine
  8
CADDY_2
 62
140
370
-1
  6
CONTINUOUS
 10
199.5841369628905966
 20
15.9920349121093803
 30
0.0
 11
200.4837799072265909
 21
15.9920349121093803
 31
0.0
  0
LINE
  5
397
100
AcDbEntity
100
AcDbLine
  8
CADDY_2
 62
140
370
-1
  6
CONTINUOUS
 10
199.5841369628905966
 20
16.0945281982421911
 30
0.0
 11
200.5587615966796875
 21
16.0945281982421911
 31
0.0
  0
LINE
  5
398
100
AcDbEntity
100
AcDbLine
  8
CADDY_2
 62
140
370
-1
  6
CONTINUOUS
 10
199.5841369628905966
 20
16.197021484375
 30
0.0
 11
200.5587615966796875
 21
16.197021484375
 31
0.0
  0
LINE
  5
399
100
AcDbEntity
100
AcDbLine
  8
CADDY_2
 62
140
370
-1
  6
CONTINUOUS
 10
199.6590881347655966
 20
16.2995147705078089
 30
0.0
 11
200.6337127685546875
 21
16.2995147705078089
 31
0.0
  0
LINE
  5
39A
100
AcDbEntity
100
AcDbLine
  8
CADDY_2
 62
140
370
-1
  6
CONTINUOUS
 10
199.6590881347655966
 20
16.4020080566406214
 30
0.0
 11
200.7086944580078125
 21
16.4020080566406214
 31
0.0
  0
LINE
  5
39B
100
AcDbEntity
100
AcDbLine
  8
CADDY_2
 62
140
370
-1
  6
CONTINUOUS
 10
199.6590881347655966
 20
16.5045013427734411
 30
0.0
 11
200.7086944580078125
 21
16.5045013427734411
 31
0.0
  0
LINE
  5
39C
100
AcDbEntity
100
AcDbLine
  8
CADDY_2
 62
140
370
-1
  6
CONTINUOUS
 10
199.6590881347655966
 20
16.60699462890625
 30
0.0
 11
200.7836761474609091
 21
16.60699462890625
 31
0.0
  0
LINE
  5
39D
100
AcDbEntity
100
AcDbLine
  8
CADDY_2
 62
140
370
-1
  6
CONTINUOUS
 10
199.6590881347655966
 20
16.7094879150390589
 30
0.0
 11
200.8586273193359091
 21
16.7094879150390589
 31
0.0
  0
LINE
  5
39E
100
AcDbEntity
100
AcDbLine
  8
CADDY_2
 62
140
370
-1
  6
CONTINUOUS
 10
199.7340698242188068
 20
16.8119812011718786
 30
0.0
 11
201.0085601806640909
 21
16.8119812011718786
 31
0.0
  0
LINE
  5
39F
100
AcDbEntity
100
AcDbLine
  8
CADDY_2
 62
140
370
-1
  6
CONTINUOUS
 10
199.7340698242188068
 20
16.9144592285156214
 30
0.0
 11
201.3084716796875
 21
16.9144592285156214
 31
0.0
  0
LINE
  5
3A0
100
AcDbEntity
100
AcDbLine
  8
CADDY_2
 62
140
370
-1
  6
CONTINUOUS
 10
199.8090209960938068
 20
17.0169677734375
 30
0.0
 11
201.3834533691405966
 21
17.0169677734375
 31
0.0
  0
LINE
  5
3A1
100
AcDbEntity
100
AcDbLine
  8
CADDY_2
 62
140
370
-1
  6
CONTINUOUS
 10
199.8840026855469034
 20
17.11944580078125
 30
0.0
 11
222.9750823974609091
 21
17.11944580078125
 31
0.0
  0
LINE
  5
3A2
100
AcDbEntity
100
AcDbLine
  8
CADDY_2
 62
140
370
-1
  6
CONTINUOUS
 10
199.8840026855469034
 20
17.2219390869140589
 30
0.0
 11
223.1250152587890909
 21
17.2219390869140589
 31
0.0
  0
LINE
  5
3A3
100
AcDbEntity
100
AcDbLine
  8
CADDY_2
 62
140
370
-1
  6
CONTINUOUS
 10
200.033935546875
 20
17.3244476318359411
 30
0.0
 11
204.5400238037109091
 21
17.3244476318359411
 31
0.0
  0
LINE
  5
3A4
100
AcDbEntity
100
AcDbLine
  8
CADDY_2
 62
140
370
-1
  6
CONTINUOUS
 10
200.033935546875
 20
17.4269256591796911
 30
0.0
 11
204.5400238037109091
 21
17.4269256591796911
 31
0.0
  0
LINE
  5
3A5
100
AcDbEntity
100
AcDbLine
  8
CADDY_2
 62
140
370
-1
  6
CONTINUOUS
 10
200.1838989257811932
 20
17.5294189453125
 30
0.0
 11
204.5400238037109091
 21
17.5294189453125
 31
0.0
  0
LINE
  5
3A6
100
AcDbEntity
100
AcDbLine
  8
CADDY_2
 62
140
370
-1
  6
CONTINUOUS
 10
200.2588653564453125
 20
17.6319122314453089
 30
0.0
 11
204.5400238037109091
 21
17.6319122314453089
 31
0.0
  0
LINE
  5
3A7
100
AcDbEntity
100
AcDbLine
  8
CADDY_2
 62
140
370
-1
  6
CONTINUOUS
 10
200.3338470458984091
 20
17.7344055175781214
 30
0.0
 11
204.5400238037109091
 21
17.7344055175781214
 31
0.0
  0
LINE
  5
3A8
100
AcDbEntity
100
AcDbLine
  8
CADDY_2
 62
140
370
-1
  6
CONTINUOUS
 10
200.4837799072265909
 20
17.8369140625
 30
0.0
 11
204.5400238037109091
 21
17.8369140625
 31
0.0
  0
LINE
  5
3A9
100
AcDbEntity
100
AcDbLine
  8
CADDY_2
 62
140
370
-1
  6
CONTINUOUS
 10
200.5587615966796875
 20
17.93939208984375
 30
0.0
 11
204.5400238037109091
 21
17.93939208984375
 31
0.0
  0
LINE
  5
3AA
100
AcDbEntity
100
AcDbLine
  8
CADDY_2
 62
140
370
-1
  6
CONTINUOUS
 10
200.7836761474609091
 20
18.0418853759765589
 30
0.0
 11
204.5400238037109091
 21
18.0418853759765589
 31
0.0
  0
LINE
  5
3AB
100
AcDbEntity
100
AcDbLine
  8
CADDY_2
 62
140
370
-1
  6
CONTINUOUS
 10
200.8586273193359091
 20
18.1443786621093786
 30
0.0
 11
204.5400238037109091
 21
18.1443786621093786
 31
0.0
  0
LINE
  5
3AC
100
AcDbEntity
100
AcDbLine
  8
CADDY_2
 62
140
370
-1
  6
CONTINUOUS
 10
201.2334899902344034
 20
18.2468719482421911
 30
0.0
 11
223.0500335693359091
 21
18.2468719482421911
 31
0.0
  0
LINE
  5
3AD
100
AcDbEntity
100
AcDbLine
  8
CADDY_2
 62
140
370
-1
  6
CONTINUOUS
 10
222.1800231933594034
 20
18.0444030761718786
 30
0.0
 11
223.1250152587890909
 21
18.0444030761718786
 31
0.0
  0
LINE
  5
3AE
100
AcDbEntity
100
AcDbLine
  8
CADDY_2
 62
140
370
-1
  6
CONTINUOUS
 10
222.1800231933594034
 20
17.429443359375
 30
0.0
 11
223.1250152587890909
 21
17.429443359375
 31
0.0
  0
LINE
  5
3AF
100
AcDbEntity
100
AcDbLine
  8
CADDY_2
 62
140
370
-1
  6
CONTINUOUS
 10
222.1800231933594034
 20
17.5344390869140589
 30
0.0
 11
223.1250152587890909
 21
17.5344390869140589
 31
0.0
  0
LINE
  5
3B0
100
AcDbEntity
100
AcDbLine
  8
CADDY_2
 62
140
370
-1
  6
CONTINUOUS
 10
222.1800231933594034
 20
17.6394348144531214
 30
0.0
 11
223.1250152587890909
 21
17.6394348144531214
 31
0.0
  0
LINE
  5
3B1
100
AcDbEntity
100
AcDbLine
  8
CADDY_2
 62
140
370
-1
  6
CONTINUOUS
 10
222.1800231933594034
 20
17.74444580078125
 30
0.0
 11
223.1250152587890909
 21
17.74444580078125
 31
0.0
  0
LINE
  5
3B2
100
AcDbEntity
100
AcDbLine
  8
CADDY_2
 62
140
370
-1
  6
CONTINUOUS
 10
222.1800231933594034
 20
17.8494415283203089
 30
0.0
 11
223.1250152587890909
 21
17.8494415283203089
 31
0.0
  0
LINE
  5
3B3
100
AcDbEntity
100
AcDbLine
  8
CADDY_2
 62
140
370
-1
  6
CONTINUOUS
 10
222.1800231933594034
 20
17.9544372558593786
 30
0.0
 11
223.1250152587890909
 21
17.9544372558593786
 31
0.0
  0
LINE
  5
3B4
100
AcDbEntity
100
AcDbLine
  8
CADDY_2
 62
140
370
-1
  6
CONTINUOUS
 10
222.1800231933594034
 20
18.1418762207031214
 30
0.0
 11
223.0500335693359091
 21
18.1418762207031214
 31
0.0
  0
LINE
  5
3B5
100
AcDbEntity
100
AcDbLine
  8
CADDY_2
 62
140
370
-1
  6
CONTINUOUS
 10
222.1800231933594034
 20
17.3269500732421911
 30
0.0
 11
223.1250152587890909
 21
17.3269500732421911
 31
0.0
  0
ENDBLK
  5
3B6
100
AcDbEntity
  8
0
100
AcDbBlockEnd
  0
BLOCK
  5
3B7
100
AcDbEntity
  8
0
100
AcDbBlockBegin
  2
BLK4
 70
0
 10
0.0
 20
0.0
 30
0.0
  3
BLK4
  1

  0
LINE
  5
3B8
100
AcDbEntity
100
AcDbLine
  8
CADDY_2
 62
256
370
-1
  6
CONTINUOUS
 10
204.7353363037109091
 20
17.4577941894531214
 30
0.0
 11
205.2891998291015909
 21
17.4577941894531214
 31
0.0
  0
LINE
  5
3B9
100
AcDbEntity
100
AcDbLine
  8
CADDY_2
 62
256
370
-1
  6
CONTINUOUS
 10
205.3999328613280966
 20
17.4577941894531214
 30
0.0
 11
205.9537811279296875
 21
17.4577941894531214
 31
0.0
  0
LINE
  5
3BA
100
AcDbEntity
100
AcDbLine
  8
CADDY_2
 62
256
370
-1
  6
CONTINUOUS
 10
206.0276031494140909
 20
17.4577941894531214
 30
0.0
 11
206.5814514160155966
 21
17.4577941894531214
 31
0.0
  0
LINE
  5
3BB
100
AcDbEntity
100
AcDbLine
  8
CADDY_2
 62
256
370
-1
  6
CONTINUOUS
 10
206.6922302246094034
 20
17.4577941894531214
 30
0.0
 11
207.0245361328125
 21
17.4577941894531214
 31
0.0
  0
LINE
  5
3BC
100
AcDbEntity
100
AcDbLine
  8
CADDY_2
 62
256
370
-1
  6
CONTINUOUS
 10
207.0983734130859091
 20
17.4577941894531214
 30
0.0
 11
207.4306488037109091
 21
17.4577941894531214
 31
0.0
  0
LINE
  5
3BD
100
AcDbEntity
100
AcDbLine
  8
CADDY_2
 62
256
370
-1
  6
CONTINUOUS
 10
207.5783386230469034
 20
17.4577941894531214
 30
0.0
 11
207.8737030029296875
 21
17.4577941894531214
 31
0.0
  0
LINE
  5
3BE
100
AcDbEntity
100
AcDbLine
  8
CADDY_2
 62
256
370
-1
  6
CONTINUOUS
 10
208.1690979003905966
 20
17.4577941894531214
 30
0.0
 11
208.5014038085938068
 21
17.4577941894531214
 31
0.0
  0
LINE
  5
3BF
100
AcDbEntity
100
AcDbLine
  8
CADDY_2
 62
256
370
-1
  6
CONTINUOUS
 10
208.6490783691405966
 20
17.4577941894531214
 30
0.0
 11
208.7967681884765909
 21
17.4577941894531214
 31
0.0
  0
LINE
  5
3C0
100
AcDbEntity
100
AcDbLine
  8
CADDY_2
 62
256
370
-1
  6
CONTINUOUS
 10
209.0921630859375
 20
17.4577941894531214
 30
0.0
 11
209.3136749267578125
 21
17.4577941894531214
 31
0.0
  0
LINE
  5
3C1
100
AcDbEntity
100
AcDbLine
  8
CADDY_2
 62
256
370
-1
  6
CONTINUOUS
 10
209.6459808349609091
 20
17.4577941894531214
 30
0.0
 11
209.9044494628905966
 21
17.4577941894531214
 31
0.0
  0
LINE
  5
3C2
100
AcDbEntity
100
AcDbLine
  8
CADDY_2
 62
256
370
-1
  6
CONTINUOUS
 10
210.0521240234375
 20
17.4577941894531214
 30
0.0
 11
210.0890502929688068
 21
17.4577941894531214
 31
0.0
  0
LINE
  5
3C3
100
AcDbEntity
100
AcDbLine
  8
CADDY_2
 62
256
370
-1
  6
CONTINUOUS
 10
210.1998138427734091
 20
17.4577941894531214
 30
0.0
 11
210.4951477050780966
 21
17.4577941894531214
 31
0.0
  0
LINE
  5
3C4
100
AcDbEntity
100
AcDbLine
  8
CADDY_2
 62
256
370
-1
  6
CONTINUOUS
 10
210.5690307617188068
 20
17.4577941894531214
 30
0.0
 11
210.7905426025390909
 21
17.4577941894531214
 31
0.0
  0
LINE
  5
3C5
100
AcDbEntity
100
AcDbLine
  8
CADDY_2
 62
256
370
-1
  6
CONTINUOUS
 10
210.9751434326171875
 20
17.4577941894531214
 30
0.0
 11
211.2705230712890909
 21
17.4577941894531214
 31
0.0
  0
LINE
  5
3C6
100
AcDbEntity
100
AcDbLine
  8
CADDY_2
 62
256
370
-1
  6
CONTINUOUS
 10
211.4920806884765909
 20
17.4577941894531214
 30
0.0
 11
211.6397705078125
 21
17.4577941894531214
 31
0.0
  0
LINE
  5
3C7
100
AcDbEntity
100
AcDbLine
  8
CADDY_2
 62
256
370
-1
  6
CONTINUOUS
 10
212.1197509765625
 20
17.4577941894531214
 30
0.0
 11
212.3781890869140909
 21
17.4577941894531214
 31
0.0
  0
LINE
  5
3C8
100
AcDbEntity
100
AcDbLine
  8
CADDY_2
 62
256
370
-1
  6
CONTINUOUS
 10
212.5997467041015909
 20
17.4577941894531214
 30
0.0
 11
212.8950958251953125
 21
17.4577941894531214
 31
0.0
  0
LINE
  5
3C9
100
AcDbEntity
100
AcDbLine
  8
CADDY_2
 62
256
370
-1
  6
CONTINUOUS
 10
213.0427856445311932
 20
17.4577941894531214
 30
0.0
 11
213.3381652832030966
 21
17.4577941894531214
 31
0.0
  0
LINE
  5
3CA
100
AcDbEntity
100
AcDbLine
  8
CADDY_2
 62
256
370
-1
  6
CONTINUOUS
 10
213.4489288330078125
 20
17.4577941894531214
 30
0.0
 11
213.7443237304688068
 21
17.4577941894531214
 31
0.0
  0
LINE
  5
3CB
100
AcDbEntity
100
AcDbLine
  8
CADDY_2
 62
256
370
-1
  6
CONTINUOUS
 10
213.8181457519530966
 20
17.4577941894531214
 30
0.0
 11
214.0766143798828125
 21
17.4577941894531214
 31
0.0
  0
LINE
  5
3CC
100
AcDbEntity
100
AcDbLine
  8
CADDY_2
 62
256
370
-1
  6
CONTINUOUS
 10
214.4088897705078125
 20
17.4577941894531214
 30
0.0
 11
214.4458160400390909
 21
17.4577941894531214
 31
0.0
  0
LINE
  5
3CD
100
AcDbEntity
100
AcDbLine
  8
CADDY_2
 62
256
370
-1
  6
CONTINUOUS
 10
214.6304168701171875
 20
17.4577941894531214
 30
0.0
 11
215.1842651367188068
 21
17.4577941894531214
 31
0.0
  0
LINE
  5
3CE
100
AcDbEntity
100
AcDbLine
  8
CADDY_2
 62
256
370
-1
  6
CONTINUOUS
 10
215.2581024169921875
 20
17.4577941894531214
 30
0.0
 11
215.5165710449219034
 21
17.4577941894531214
 31
0.0
  0
LINE
  5
3CF
100
AcDbEntity
100
AcDbLine
  8
CADDY_2
 62
256
370
-1
  6
CONTINUOUS
 10
215.8488616943359091
 20
17.4577941894531214
 30
0.0
 11
215.8857727050780966
 21
17.4577941894531214
 31
0.0
  0
LINE
  5
3D0
100
AcDbEntity
100
AcDbLine
  8
CADDY_2
 62
256
370
-1
  6
CONTINUOUS
 10
216.0703735351561932
 20
17.4577941894531214
 30
0.0
 11
216.5872802734375
 21
17.4577941894531214
 31
0.0
  0
LINE
  5
3D1
100
AcDbEntity
100
AcDbLine
  8
CADDY_2
 62
256
370
-1
  6
CONTINUOUS
 10
216.7349853515625
 20
17.4577941894531214
 30
0.0
 11
216.9565277099609091
 21
17.4577941894531214
 31
0.0
  0
LINE
  5
3D2
100
AcDbEntity
100
AcDbLine
  8
CADDY_2
 62
256
370
-1
  6
CONTINUOUS
 10
217.1411285400390909
 20
17.4577941894531214
 30
0.0
 11
217.4364929199219034
 21
17.4577941894531214
 31
0.0
  0
LINE
  5
3D3
100
AcDbEntity
100
AcDbLine
  8
CADDY_2
 62
256
370
-1
  6
CONTINUOUS
 10
217.7318725585938068
 20
17.4577941894531214
 30
0.0
 11
217.9903106689453125
 21
17.4577941894531214
 31
0.0
  0
LINE
  5
3D4
100
AcDbEntity
100
AcDbLine
  8
CADDY_2
 62
256
370
-1
  6
CONTINUOUS
 10
218.8026123046875
 20
17.4577941894531214
 30
0.0
 11
219.0610656738280966
 21
17.4577941894531214
 31
0.0
  0
LINE
  5
3D5
100
AcDbEntity
100
AcDbLine
  8
CADDY_2
 62
256
370
-1
  6
CONTINUOUS
 10
219.3195343017578125
 20
17.4577941894531214
 30
0.0
 11
219.5779571533203125
 21
17.4577941894531214
 31
0.0
  0
LINE
  5
3D6
100
AcDbEntity
100
AcDbLine
  8
CADDY_2
 62
256
370
-1
  6
CONTINUOUS
 10
219.7256469726561932
 20
17.4577941894531214
 30
0.0
 11
219.7625732421875
 21
17.4577941894531214
 31
0.0
  0
LINE
  5
3D7
100
AcDbEntity
100
AcDbLine
  8
CADDY_2
 62
256
370
-1
  6
CONTINUOUS
 10
219.8733367919921875
 20
17.4577941894531214
 30
0.0
 11
220.1687164306640909
 21
17.4577941894531214
 31
0.0
  0
LINE
  5
3D8
100
AcDbEntity
100
AcDbLine
  8
CADDY_2
 62
256
370
-1
  6
CONTINUOUS
 10
220.2795104980469034
 20
17.4577941894531214
 30
0.0
 11
220.7964019775390909
 21
17.4577941894531214
 31
0.0
  0
LINE
  5
3D9
100
AcDbEntity
100
AcDbLine
  8
CADDY_2
 62
256
370
-1
  6
CONTINUOUS
 10
220.9810028076171875
 20
17.4577941894531214
 30
0.0
 11
221.2763824462890909
 21
17.4577941894531214
 31
0.0
  0
LINE
  5
3DA
100
AcDbEntity
100
AcDbLine
  8
CADDY_2
 62
256
370
-1
  6
CONTINUOUS
 10
221.424072265625
 20
17.4577941894531214
 30
0.0
 11
221.7194519042969034
 21
17.4577941894531214
 31
0.0
  0
LINE
  5
3DB
100
AcDbEntity
100
AcDbLine
  8
CADDY_2
 62
256
370
-1
  6
CONTINUOUS
 10
204.8092041015625
 20
17.4943695068359411
 30
0.0
 11
204.9938049316405966
 21
17.4943695068359411
 31
0.0
  0
LINE
  5
3DC
100
AcDbEntity
100
AcDbLine
  8
CADDY_2
 62
256
370
-1
  6
CONTINUOUS
 10
205.21533203125
 20
17.4943695068359411
 30
0.0
 11
205.3261108398438068
 21
17.4943695068359411
 31
0.0
  0
LINE
  5
3DD
100
AcDbEntity
100
AcDbLine
  8
CADDY_2
 62
256
370
-1
  6
CONTINUOUS
 10
205.5107116699219034
 20
17.4943695068359411
 30
0.0
 11
205.6584014892578125
 21
17.4943695068359411
 31
0.0
  0
LINE
  5
3DE
100
AcDbEntity
100
AcDbLine
  8
CADDY_2
 62
256
370
-1
  6
CONTINUOUS
 10
205.8799285888671875
 20
17.4943695068359411
 30
0.0
 11
205.9906921386719034
 21
17.4943695068359411
 31
0.0
  0
LINE
  5
3DF
100
AcDbEntity
100
AcDbLine
  8
CADDY_2
 62
256
370
-1
  6
CONTINUOUS
 10
206.1014862060546875
 20
17.4943695068359411
 30
0.0
 11
206.2860870361328125
 21
17.4943695068359411
 31
0.0
  0
LINE
  5
3E0
100
AcDbEntity
100
AcDbLine
  8
CADDY_2
 62
256
370
-1
  6
CONTINUOUS
 10
206.5075988769530966
 20
17.4943695068359411
 30
0.0
 11
206.6183776855469034
 21
17.4943695068359411
 31
0.0
  0
LINE
  5
3E1
100
AcDbEntity
100
AcDbLine
  8
CADDY_2
 62
256
370
-1
  6
CONTINUOUS
 10
206.802978515625
 20
17.4943695068359411
 30
0.0
 11
206.9506683349609091
 21
17.4943695068359411
 31
0.0
  0
LINE
  5
3E2
100
AcDbEntity
100
AcDbLine
  8
CADDY_2
 62
256
370
-1
  6
CONTINUOUS
 10
207.1722106933594034
 20
17.4943695068359411
 30
0.0
 11
207.3568115234375
 21
17.4943695068359411
 31
0.0
  0
LINE
  5
3E3
100
AcDbEntity
100
AcDbLine
  8
CADDY_2
 62
256
370
-1
  6
CONTINUOUS
 10
207.6522064208984091
 20
17.4943695068359411
 30
0.0
 11
207.8368072509765909
 21
17.4943695068359411
 31
0.0
  0
LINE
  5
3E4
100
AcDbEntity
100
AcDbLine
  8
CADDY_2
 62
256
370
-1
  6
CONTINUOUS
 10
208.2798461914061932
 20
17.4943695068359411
 30
0.0
 11
208.4275360107421875
 21
17.4943695068359411
 31
0.0
  0
LINE
  5
3E5
100
AcDbEntity
100
AcDbLine
  8
CADDY_2
 62
256
370
-1
  6
CONTINUOUS
 10
208.6490783691405966
 20
17.4943695068359411
 30
0.0
 11
208.7598724365234091
 21
17.4943695068359411
 31
0.0
  0
LINE
  5
3E6
100
AcDbEntity
100
AcDbLine
  8
CADDY_2
 62
256
370
-1
  6
CONTINUOUS
 10
209.0182952880859091
 20
17.4943695068359411
 30
0.0
 11
209.1290740966796875
 21
17.4943695068359411
 31
0.0
  0
LINE
  5
3E7
100
AcDbEntity
100
AcDbLine
  8
CADDY_2
 62
256
370
-1
  6
CONTINUOUS
 10
209.3136749267578125
 20
17.4943695068359411
 30
0.0
 11
209.4244537353515909
 21
17.4943695068359411
 31
0.0
  0
LINE
  5
3E8
100
AcDbEntity
100
AcDbLine
  8
CADDY_2
 62
256
370
-1
  6
CONTINUOUS
 10
209.7567443847655966
 20
17.4943695068359411
 30
0.0
 11
209.8305816650390909
 21
17.4943695068359411
 31
0.0
  0
LINE
  5
3E9
100
AcDbEntity
100
AcDbLine
  8
CADDY_2
 62
256
370
-1
  6
CONTINUOUS
 10
210.0521240234375
 20
17.4943695068359411
 30
0.0
 11
210.0890502929688068
 21
17.4943695068359411
 31
0.0
  0
LINE
  5
3EA
100
AcDbEntity
100
AcDbLine
  8
CADDY_2
 62
256
370
-1
  6
CONTINUOUS
 10
210.310546875
 20
17.4943695068359411
 30
0.0
 11
210.458251953125
 21
17.4943695068359411
 31
0.0
  0
LINE
  5
3EB
100
AcDbEntity
100
AcDbLine
  8
CADDY_2
 62
256
370
-1
  6
CONTINUOUS
 10
210.6428527832030966
 20
17.4943695068359411
 30
0.0
 11
210.7536315917969034
 21
17.4943695068359411
 31
0.0
  0
LINE
  5
3EC
100
AcDbEntity
100
AcDbLine
  8
CADDY_2
 62
256
370
-1
  6
CONTINUOUS
 10
211.0490112304688068
 20
17.4943695068359411
 30
0.0
 11
211.1967163085938068
 21
17.4943695068359411
 31
0.0
  0
LINE
  5
3ED
100
AcDbEntity
100
AcDbLine
  8
CADDY_2
 62
256
370
-1
  6
CONTINUOUS
 10
211.3813171386719034
 20
17.4943695068359411
 30
0.0
 11
211.4920806884765909
 21
17.4943695068359411
 31
0.0
  0
LINE
  5
3EE
100
AcDbEntity
100
AcDbLine
  8
CADDY_2
 62
256
370
-1
  6
CONTINUOUS
 10
211.6397705078125
 20
17.4943695068359411
 30
0.0
 11
211.7135925292969034
 21
17.4943695068359411
 31
0.0
  0
LINE
  5
3EF
100
AcDbEntity
100
AcDbLine
  8
CADDY_2
 62
256
370
-1
  6
CONTINUOUS
 10
212.0458984375
 20
17.4943695068359411
 30
0.0
 11
212.1935882568359091
 21
17.4943695068359411
 31
0.0
  0
LINE
  5
3F0
100
AcDbEntity
100
AcDbLine
  8
CADDY_2
 62
256
370
-1
  6
CONTINUOUS
 10
212.3781890869140909
 20
17.4943695068359411
 30
0.0
 11
212.4520568847655966
 21
17.4943695068359411
 31
0.0
  0
LINE
  5
3F1
100
AcDbEntity
100
AcDbLine
  8
CADDY_2
 62
256
370
-1
  6
CONTINUOUS
 10
212.7104949951171875
 20
17.4943695068359411
 30
0.0
 11
212.8581848144530966
 21
17.4943695068359411
 31
0.0
  0
LINE
  5
3F2
100
AcDbEntity
100
AcDbLine
  8
CADDY_2
 62
256
370
-1
  6
CONTINUOUS
 10
213.1166381835938068
 20
17.4943695068359411
 30
0.0
 11
213.2643280029296875
 21
17.4943695068359411
 31
0.0
  0
LINE
  5
3F3
100
AcDbEntity
100
AcDbLine
  8
CADDY_2
 62
256
370
-1
  6
CONTINUOUS
 10
213.5597229003905966
 20
17.4943695068359411
 30
0.0
 11
213.6704559326171875
 21
17.4943695068359411
 31
0.0
  0
LINE
  5
3F4
100
AcDbEntity
100
AcDbLine
  8
CADDY_2
 62
256
370
-1
  6
CONTINUOUS
 10
213.9289245605469034
 20
17.4943695068359411
 30
0.0
 11
214.0027618408203125
 21
17.4943695068359411
 31
0.0
  0
LINE
  5
3F5
100
AcDbEntity
100
AcDbLine
  8
CADDY_2
 62
256
370
-1
  6
CONTINUOUS
 10
214.4088897705078125
 20
17.4943695068359411
 30
0.0
 11
214.4827270507811932
 21
17.4943695068359411
 31
0.0
  0
LINE
  5
3F6
100
AcDbEntity
100
AcDbLine
  8
CADDY_2
 62
256
370
-1
  6
CONTINUOUS
 10
214.7042999267578125
 20
17.4943695068359411
 30
0.0
 11
214.8889007568359091
 21
17.4943695068359411
 31
0.0
  0
LINE
  5
3F7
100
AcDbEntity
100
AcDbLine
  8
CADDY_2
 62
256
370
-1
  6
CONTINUOUS
 10
215.1103973388671875
 20
17.4943695068359411
 30
0.0
 11
215.22119140625
 21
17.4943695068359411
 31
0.0
  0
LINE
  5
3F8
100
AcDbEntity
100
AcDbLine
  8
CADDY_2
 62
256
370
-1
  6
CONTINUOUS
 10
215.3688659667969034
 20
17.4943695068359411
 30
0.0
 11
215.4427032470703125
 21
17.4943695068359411
 31
0.0
  0
LINE
  5
3F9
100
AcDbEntity
100
AcDbLine
  8
CADDY_2
 62
256
370
-1
  6
CONTINUOUS
 10
215.8488616943359091
 20
17.4943695068359411
 30
0.0
 11
215.9226837158203125
 21
17.4943695068359411
 31
0.0
  0
LINE
  5
3FA
100
AcDbEntity
100
AcDbLine
  8
CADDY_2
 62
256
370
-1
  6
CONTINUOUS
 10
216.1811676025390909
 20
17.4943695068359411
 30
0.0
 11
216.2919311523438068
 21
17.4943695068359411
 31
0.0
  0
LINE
  5
3FB
100
AcDbEntity
100
AcDbLine
  8
CADDY_2
 62
256
370
-1
  6
CONTINUOUS
 10
216.4765319824219034
 20
17.4943695068359411
 30
0.0
 11
216.6242370605469034
 21
17.4943695068359411
 31
0.0
  0
LINE
  5
3FC
100
AcDbEntity
100
AcDbLine
  8
CADDY_2
 62
256
370
-1
  6
CONTINUOUS
 10
216.808837890625
 20
17.4943695068359411
 30
0.0
 11
216.9196014404296875
 21
17.4943695068359411
 31
0.0
  0
LINE
  5
3FD
100
AcDbEntity
100
AcDbLine
  8
CADDY_2
 62
256
370
-1
  6
CONTINUOUS
 10
217.2149353027344034
 20
17.4943695068359411
 30
0.0
 11
217.3626403808594034
 21
17.4943695068359411
 31
0.0
  0
LINE
  5
3FE
100
AcDbEntity
100
AcDbLine
  8
CADDY_2
 62
256
370
-1
  6
CONTINUOUS
 10
217.6949615478515909
 20
17.4943695068359411
 30
0.0
 11
217.8057098388671875
 21
17.4943695068359411
 31
0.0
  0
LINE
  5
3FF
100
AcDbEntity
100
AcDbLine
  8
CADDY_2
 62
256
370
-1
  6
CONTINUOUS
 10
217.9903106689453125
 20
17.4943695068359411
 30
0.0
 11
218.0641784667969034
 21
17.4943695068359411
 31
0.0
  0
LINE
  5
400
100
AcDbEntity
100
AcDbLine
  8
CADDY_2
 62
256
370
-1
  6
CONTINUOUS
 10
218.728759765625
 20
17.4943695068359411
 30
0.0
 11
218.87646484375
 21
17.4943695068359411
 31
0.0
  0
LINE
  5
401
100
AcDbEntity
100
AcDbLine
  8
CADDY_2
 62
256
370
-1
  6
CONTINUOUS
 10
219.0610656738280966
 20
17.4943695068359411
 30
0.0
 11
219.1349029541015909
 21
17.4943695068359411
 31
0.0
  0
LINE
  5
402
100
AcDbEntity
100
AcDbLine
  8
CADDY_2
 62
256
370
-1
  6
CONTINUOUS
 10
219.4302825927734091
 20
17.4943695068359411
 30
0.0
 11
219.5041351318359091
 21
17.4943695068359411
 31
0.0
  0
LINE
  5
403
100
AcDbEntity
100
AcDbLine
  8
CADDY_2
 62
256
370
-1
  6
CONTINUOUS
 10
219.7256469726561932
 20
17.4943695068359411
 30
0.0
 11
219.7625732421875
 21
17.4943695068359411
 31
0.0
  0
LINE
  5
404
100
AcDbEntity
100
AcDbLine
  8
CADDY_2
 62
256
370
-1
  6
CONTINUOUS
 10
219.9841156005859091
 20
17.4943695068359411
 30
0.0
 11
220.1318054199219034
 21
17.4943695068359411
 31
0.0
  0
LINE
  5
405
100
AcDbEntity
100
AcDbLine
  8
CADDY_2
 62
256
370
-1
  6
CONTINUOUS
 10
220.3902282714844034
 20
17.4943695068359411
 30
0.0
 11
220.5010223388671875
 21
17.4943695068359411
 31
0.0
  0
LINE
  5
406
100
AcDbEntity
100
AcDbLine
  8
CADDY_2
 62
256
370
-1
  6
CONTINUOUS
 10
220.6856231689453125
 20
17.4943695068359411
 30
0.0
 11
220.8333129882811932
 21
17.4943695068359411
 31
0.0
  0
LINE
  5
407
100
AcDbEntity
100
AcDbLine
  8
CADDY_2
 62
256
370
-1
  6
CONTINUOUS
 10
221.0917816162109091
 20
17.4943695068359411
 30
0.0
 11
221.2394866943359091
 21
17.4943695068359411
 31
0.0
  0
LINE
  5
408
100
AcDbEntity
100
AcDbLine
  8
CADDY_2
 62
256
370
-1
  6
CONTINUOUS
 10
221.4979095458984091
 20
17.4943695068359411
 30
0.0
 11
221.6455841064453125
 21
17.4943695068359411
 31
0.0
  0
LINE
  5
409
100
AcDbEntity
100
AcDbLine
  8
CADDY_2
 62
256
370
-1
  6
CONTINUOUS
 10
204.8830261230469034
 20
17.53094482421875
 30
0.0
 11
204.9569091796875
 21
17.53094482421875
 31
0.0
  0
LINE
  5
40A
100
AcDbEntity
100
AcDbLine
  8
CADDY_2
 62
256
370
-1
  6
CONTINUOUS
 10
205.2522277832030966
 20
17.53094482421875
 30
0.0
 11
205.3261108398438068
 21
17.53094482421875
 31
0.0
  0
LINE
  5
40B
100
AcDbEntity
100
AcDbLine
  8
CADDY_2
 62
256
370
-1
  6
CONTINUOUS
 10
205.5476226806640909
 20
17.53094482421875
 30
0.0
 11
205.6214904785155966
 21
17.53094482421875
 31
0.0
  0
LINE
  5
40C
100
AcDbEntity
100
AcDbLine
  8
CADDY_2
 62
256
370
-1
  6
CONTINUOUS
 10
205.9168548583984091
 20
17.53094482421875
 30
0.0
 11
205.9906921386719034
 21
17.53094482421875
 31
0.0
  0
LINE
  5
40D
100
AcDbEntity
100
AcDbLine
  8
CADDY_2
 62
256
370
-1
  6
CONTINUOUS
 10
206.17529296875
 20
17.53094482421875
 30
0.0
 11
206.2491607666015909
 21
17.53094482421875
 31
0.0
  0
LINE
  5
40E
100
AcDbEntity
100
AcDbLine
  8
CADDY_2
 62
256
370
-1
  6
CONTINUOUS
 10
206.5445404052734091
 20
17.53094482421875
 30
0.0
 11
206.6183776855469034
 21
17.53094482421875
 31
0.0
  0
LINE
  5
40F
100
AcDbEntity
100
AcDbLine
  8
CADDY_2
 62
256
370
-1
  6
CONTINUOUS
 10
206.8399353027344034
 20
17.53094482421875
 30
0.0
 11
206.9137420654296875
 21
17.53094482421875
 31
0.0
  0
LINE
  5
410
100
AcDbEntity
100
AcDbLine
  8
CADDY_2
 62
256
370
-1
  6
CONTINUOUS
 10
207.2091369628905966
 20
17.53094482421875
 30
0.0
 11
207.3198699951171875
 21
17.53094482421875
 31
0.0
  0
LINE
  5
411
100
AcDbEntity
100
AcDbLine
  8
CADDY_2
 62
256
370
-1
  6
CONTINUOUS
 10
207.7260284423828125
 20
17.53094482421875
 30
0.0
 11
207.7998657226561932
 21
17.53094482421875
 31
0.0
  0
LINE
  5
412
100
AcDbEntity
100
AcDbLine
  8
CADDY_2
 62
256
370
-1
  6
CONTINUOUS
 10
208.3167877197265909
 20
17.53094482421875
 30
0.0
 11
208.3906097412109091
 21
17.53094482421875
 31
0.0
  0
LINE
  5
413
100
AcDbEntity
100
AcDbLine
  8
CADDY_2
 62
256
370
-1
  6
CONTINUOUS
 10
208.6121673583984091
 20
17.53094482421875
 30
0.0
 11
208.722900390625
 21
17.53094482421875
 31
0.0
  0
LINE
  5
414
100
AcDbEntity
100
AcDbLine
  8
CADDY_2
 62
256
370
-1
  6
CONTINUOUS
 10
208.9813690185546875
 20
17.53094482421875
 30
0.0
 11
209.0921630859375
 21
17.53094482421875
 31
0.0
  0
LINE
  5
415
100
AcDbEntity
100
AcDbLine
  8
CADDY_2
 62
256
370
-1
  6
CONTINUOUS
 10
209.3874969482421875
 20
17.53094482421875
 30
0.0
 11
209.4982757568359091
 21
17.53094482421875
 31
0.0
  0
LINE
  5
416
100
AcDbEntity
100
AcDbLine
  8
CADDY_2
 62
256
370
-1
  6
CONTINUOUS
 10
209.7936553955078125
 20
17.53094482421875
 30
0.0
 11
209.8305816650390909
 21
17.53094482421875
 31
0.0
  0
LINE
  5
417
100
AcDbEntity
100
AcDbLine
  8
CADDY_2
 62
256
370
-1
  6
CONTINUOUS
 10
210.0521240234375
 20
17.53094482421875
 30
0.0
 11
210.1259460449219034
 21
17.53094482421875
 31
0.0
  0
LINE
  5
418
100
AcDbEntity
100
AcDbLine
  8
CADDY_2
 62
256
370
-1
  6
CONTINUOUS
 10
210.3474731445311932
 20
17.53094482421875
 30
0.0
 11
210.4213409423828125
 21
17.53094482421875
 31
0.0
  0
LINE
  5
419
100
AcDbEntity
100
AcDbLine
  8
CADDY_2
 62
256
370
-1
  6
CONTINUOUS
 10
210.6797790527344034
 20
17.53094482421875
 30
0.0
 11
210.7167205810546875
 21
17.53094482421875
 31
0.0
  0
LINE
  5
41A
100
AcDbEntity
100
AcDbLine
  8
CADDY_2
 62
256
370
-1
  6
CONTINUOUS
 10
211.0859222412109091
 20
17.53094482421875
 30
0.0
 11
211.1967163085938068
 21
17.53094482421875
 31
0.0
  0
LINE
  5
41B
100
AcDbEntity
100
AcDbLine
  8
CADDY_2
 62
256
370
-1
  6
CONTINUOUS
 10
211.3813171386719034
 20
17.53094482421875
 30
0.0
 11
211.4551239013671875
 21
17.53094482421875
 31
0.0
  0
LINE
  5
41C
100
AcDbEntity
100
AcDbLine
  8
CADDY_2
 62
256
370
-1
  6
CONTINUOUS
 10
211.6766815185546875
 20
17.53094482421875
 30
0.0
 11
211.7505187988280966
 21
17.53094482421875
 31
0.0
  0
LINE
  5
41D
100
AcDbEntity
100
AcDbLine
  8
CADDY_2
 62
256
370
-1
  6
CONTINUOUS
 10
212.0089721679688068
 20
17.53094482421875
 30
0.0
 11
212.1197509765625
 21
17.53094482421875
 31
0.0
  0
LINE
  5
41E
100
AcDbEntity
100
AcDbLine
  8
CADDY_2
 62
256
370
-1
  6
CONTINUOUS
 10
212.4520568847655966
 20
17.53094482421875
 30
0.0
 11
212.5258941650390909
 21
17.53094482421875
 31
0.0
  0
LINE
  5
41F
100
AcDbEntity
100
AcDbLine
  8
CADDY_2
 62
256
370
-1
  6
CONTINUOUS
 10
212.7473907470703125
 20
17.53094482421875
 30
0.0
 11
212.8212432861328125
 21
17.53094482421875
 31
0.0
  0
LINE
  5
420
100
AcDbEntity
100
AcDbLine
  8
CADDY_2
 62
256
370
-1
  6
CONTINUOUS
 10
213.1904754638671875
 20
17.53094482421875
 30
0.0
 11
213.2643280029296875
 21
17.53094482421875
 31
0.0
  0
LINE
  5
421
100
AcDbEntity
100
AcDbLine
  8
CADDY_2
 62
256
370
-1
  6
CONTINUOUS
 10
213.5966186523438068
 20
17.53094482421875
 30
0.0
 11
213.6704559326171875
 21
17.53094482421875
 31
0.0
  0
LINE
  5
422
100
AcDbEntity
100
AcDbLine
  8
CADDY_2
 62
256
370
-1
  6
CONTINUOUS
 10
213.9658203125
 20
17.53094482421875
 30
0.0
 11
214.0027618408203125
 21
17.53094482421875
 31
0.0
  0
LINE
  5
423
100
AcDbEntity
100
AcDbLine
  8
CADDY_2
 62
256
370
-1
  6
CONTINUOUS
 10
214.3719940185546875
 20
17.53094482421875
 30
0.0
 11
214.4827270507811932
 21
17.53094482421875
 31
0.0
  0
LINE
  5
424
100
AcDbEntity
100
AcDbLine
  8
CADDY_2
 62
256
370
-1
  6
CONTINUOUS
 10
214.7781066894530966
 20
17.53094482421875
 30
0.0
 11
214.8519744873046875
 21
17.53094482421875
 31
0.0
  0
LINE
  5
425
100
AcDbEntity
100
AcDbLine
  8
CADDY_2
 62
256
370
-1
  6
CONTINUOUS
 10
215.1473388671875
 20
17.53094482421875
 30
0.0
 11
215.22119140625
 21
17.53094482421875
 31
0.0
  0
LINE
  5
426
100
AcDbEntity
100
AcDbLine
  8
CADDY_2
 62
256
370
-1
  6
CONTINUOUS
 10
215.4057922363280966
 20
17.53094482421875
 30
0.0
 11
215.4427032470703125
 21
17.53094482421875
 31
0.0
  0
LINE
  5
427
100
AcDbEntity
100
AcDbLine
  8
CADDY_2
 62
256
370
-1
  6
CONTINUOUS
 10
215.8119506835938068
 20
17.53094482421875
 30
0.0
 11
215.9226837158203125
 21
17.53094482421875
 31
0.0
  0
LINE
  5
428
100
AcDbEntity
100
AcDbLine
  8
CADDY_2
 62
256
370
-1
  6
CONTINUOUS
 10
216.2180633544921875
 20
17.53094482421875
 30
0.0
 11
216.2919311523438068
 21
17.53094482421875
 31
0.0
  0
LINE
  5
429
100
AcDbEntity
100
AcDbLine
  8
CADDY_2
 62
256
370
-1
  6
CONTINUOUS
 10
216.5503692626953125
 20
17.53094482421875
 30
0.0
 11
216.6611328125
 21
17.53094482421875
 31
0.0
  0
LINE
  5
42A
100
AcDbEntity
100
AcDbLine
  8
CADDY_2
 62
256
370
-1
  6
CONTINUOUS
 10
216.8457336425780966
 20
17.53094482421875
 30
0.0
 11
216.8826599121094034
 21
17.53094482421875
 31
0.0
  0
LINE
  5
42B
100
AcDbEntity
100
AcDbLine
  8
CADDY_2
 62
256
370
-1
  6
CONTINUOUS
 10
217.2518920898438068
 20
17.53094482421875
 30
0.0
 11
217.3626403808594034
 21
17.53094482421875
 31
0.0
  0
LINE
  5
42C
100
AcDbEntity
100
AcDbLine
  8
CADDY_2
 62
256
370
-1
  6
CONTINUOUS
 10
217.6580352783203125
 20
17.53094482421875
 30
0.0
 11
217.7687835693359091
 21
17.53094482421875
 31
0.0
  0
LINE
  5
42D
100
AcDbEntity
100
AcDbLine
  8
CADDY_2
 62
256
370
-1
  6
CONTINUOUS
 10
218.0641784667969034
 20
17.53094482421875
 30
0.0
 11
218.1011047363280966
 21
17.53094482421875
 31
0.0
  0
LINE
  5
42E
100
AcDbEntity
100
AcDbLine
  8
CADDY_2
 62
256
370
-1
  6
CONTINUOUS
 10
218.6918487548828125
 20
17.53094482421875
 30
0.0
 11
218.8026123046875
 21
17.53094482421875
 31
0.0
  0
LINE
  5
42F
100
AcDbEntity
100
AcDbLine
  8
CADDY_2
 62
256
370
-1
  6
CONTINUOUS
 10
219.0979766845703125
 20
17.53094482421875
 30
0.0
 11
219.208740234375
 21
17.53094482421875
 31
0.0
  0
LINE
  5
430
100
AcDbEntity
100
AcDbLine
  8
CADDY_2
 62
256
370
-1
  6
CONTINUOUS
 10
219.4671783447265909
 20
17.53094482421875
 30
0.0
 11
219.5041351318359091
 21
17.53094482421875
 31
0.0
  0
LINE
  5
431
100
AcDbEntity
100
AcDbLine
  8
CADDY_2
 62
256
370
-1
  6
CONTINUOUS
 10
219.7256469726561932
 20
17.53094482421875
 30
0.0
 11
219.7994995117188068
 21
17.53094482421875
 31
0.0
  0
LINE
  5
432
100
AcDbEntity
100
AcDbLine
  8
CADDY_2
 62
256
370
-1
  6
CONTINUOUS
 10
220.0210266113280966
 20
17.53094482421875
 30
0.0
 11
220.0949096679688068
 21
17.53094482421875
 31
0.0
  0
LINE
  5
433
100
AcDbEntity
100
AcDbLine
  8
CADDY_2
 62
256
370
-1
  6
CONTINUOUS
 10
220.4271850585938068
 20
17.53094482421875
 30
0.0
 11
220.5010223388671875
 21
17.53094482421875
 31
0.0
  0
LINE
  5
434
100
AcDbEntity
100
AcDbLine
  8
CADDY_2
 62
256
370
-1
  6
CONTINUOUS
 10
220.7594757080078125
 20
17.53094482421875
 30
0.0
 11
220.8702239990234091
 21
17.53094482421875
 31
0.0
  0
LINE
  5
435
100
AcDbEntity
100
AcDbLine
  8
CADDY_2
 62
256
370
-1
  6
CONTINUOUS
 10
221.1286926269530966
 20
17.53094482421875
 30
0.0
 11
221.2025146484375
 21
17.53094482421875
 31
0.0
  0
LINE
  5
436
100
AcDbEntity
100
AcDbLine
  8
CADDY_2
 62
256
370
-1
  6
CONTINUOUS
 10
221.5717620849609091
 20
17.53094482421875
 30
0.0
 11
221.6455841064453125
 21
17.53094482421875
 31
0.0
  0
LINE
  5
437
100
AcDbEntity
100
AcDbLine
  8
CADDY_2
 62
256
370
-1
  6
CONTINUOUS
 10
204.8830261230469034
 20
17.5675354003906214
 30
0.0
 11
204.9569091796875
 21
17.5675354003906214
 31
0.0
  0
LINE
  5
438
100
AcDbEntity
100
AcDbLine
  8
CADDY_2
 62
256
370
-1
  6
CONTINUOUS
 10
205.3261108398438068
 20
17.5675354003906214
 30
0.0
 11
205.3630218505859091
 21
17.5675354003906214
 31
0.0
  0
LINE
  5
439
100
AcDbEntity
100
AcDbLine
  8
CADDY_2
 62
256
370
-1
  6
CONTINUOUS
 10
205.5476226806640909
 20
17.5675354003906214
 30
0.0
 11
205.6214904785155966
 21
17.5675354003906214
 31
0.0
  0
LINE
  5
43A
100
AcDbEntity
100
AcDbLine
  8
CADDY_2
 62
256
370
-1
  6
CONTINUOUS
 10
205.9537811279296875
 20
17.5675354003906214
 30
0.0
 11
206.0276031494140909
 21
17.5675354003906214
 31
0.0
  0
LINE
  5
43B
100
AcDbEntity
100
AcDbLine
  8
CADDY_2
 62
256
370
-1
  6
CONTINUOUS
 10
206.17529296875
 20
17.5675354003906214
 30
0.0
 11
206.2491607666015909
 21
17.5675354003906214
 31
0.0
  0
LINE
  5
43C
100
AcDbEntity
100
AcDbLine
  8
CADDY_2
 62
256
370
-1
  6
CONTINUOUS
 10
206.6183776855469034
 20
17.5675354003906214
 30
0.0
 11
206.6552734375
 21
17.5675354003906214
 31
0.0
  0
LINE
  5
43D
100
AcDbEntity
100
AcDbLine
  8
CADDY_2
 62
256
370
-1
  6
CONTINUOUS
 10
206.8399353027344034
 20
17.5675354003906214
 30
0.0
 11
206.9137420654296875
 21
17.5675354003906214
 31
0.0
  0
LINE
  5
43E
100
AcDbEntity
100
AcDbLine
  8
CADDY_2
 62
256
370
-1
  6
CONTINUOUS
 10
207.1722106933594034
 20
17.5675354003906214
 30
0.0
 11
207.3198699951171875
 21
17.5675354003906214
 31
0.0
  0
LINE
  5
43F
100
AcDbEntity
100
AcDbLine
  8
CADDY_2
 62
256
370
-1
  6
CONTINUOUS
 10
207.7260284423828125
 20
17.5675354003906214
 30
0.0
 11
207.7998657226561932
 21
17.5675354003906214
 31
0.0
  0
LINE
  5
440
100
AcDbEntity
100
AcDbLine
  8
CADDY_2
 62
256
370
-1
  6
CONTINUOUS
 10
208.3167877197265909
 20
17.5675354003906214
 30
0.0
 11
208.3906097412109091
 21
17.5675354003906214
 31
0.0
  0
LINE
  5
441
100
AcDbEntity
100
AcDbLine
  8
CADDY_2
 62
256
370
-1
  6
CONTINUOUS
 10
208.6121673583984091
 20
17.5675354003906214
 30
0.0
 11
208.722900390625
 21
17.5675354003906214
 31
0.0
  0
LINE
  5
442
100
AcDbEntity
100
AcDbLine
  8
CADDY_2
 62
256
370
-1
  6
CONTINUOUS
 10
208.9444732666015909
 20
17.5675354003906214
 30
0.0
 11
209.0552062988280966
 21
17.5675354003906214
 31
0.0
  0
LINE
  5
443
100
AcDbEntity
100
AcDbLine
  8
CADDY_2
 62
256
370
-1
  6
CONTINUOUS
 10
209.4244537353515909
 20
17.5675354003906214
 30
0.0
 11
209.5351867675780966
 21
17.5675354003906214
 31
0.0
  0
LINE
  5
444
100
AcDbEntity
100
AcDbLine
  8
CADDY_2
 62
256
370
-1
  6
CONTINUOUS
 10
209.7936553955078125
 20
17.5675354003906214
 30
0.0
 11
209.8305816650390909
 21
17.5675354003906214
 31
0.0
  0
LINE
  5
445
100
AcDbEntity
100
AcDbLine
  8
CADDY_2
 62
256
370
-1
  6
CONTINUOUS
 10
210.0151824951171875
 20
17.5675354003906214
 30
0.0
 11
210.1628723144530966
 21
17.5675354003906214
 31
0.0
  0
LINE
  5
446
100
AcDbEntity
100
AcDbLine
  8
CADDY_2
 62
256
370
-1
  6
CONTINUOUS
 10
210.3474731445311932
 20
17.5675354003906214
 30
0.0
 11
210.4213409423828125
 21
17.5675354003906214
 31
0.0
  0
LINE
  5
447
100
AcDbEntity
100
AcDbLine
  8
CADDY_2
 62
256
370
-1
  6
CONTINUOUS
 10
210.7167205810546875
 20
17.5675354003906214
 30
0.0
 11
210.7536315917969034
 21
17.5675354003906214
 31
0.0
  0
LINE
  5
448
100
AcDbEntity
100
AcDbLine
  8
CADDY_2
 62
256
370
-1
  6
CONTINUOUS
 10
211.0859222412109091
 20
17.5675354003906214
 30
0.0
 11
211.1967163085938068
 21
17.5675354003906214
 31
0.0
  0
LINE
  5
449
100
AcDbEntity
100
AcDbLine
  8
CADDY_2
 62
256
370
-1
  6
CONTINUOUS
 10
211.3813171386719034
 20
17.5675354003906214
 30
0.0
 11
211.4551239013671875
 21
17.5675354003906214
 31
0.0
  0
LINE
  5
44A
100
AcDbEntity
100
AcDbLine
  8
CADDY_2
 62
256
370
-1
  6
CONTINUOUS
 10
211.7135925292969034
 20
17.5675354003906214
 30
0.0
 11
211.7874145507811932
 21
17.5675354003906214
 31
0.0
  0
LINE
  5
44B
100
AcDbEntity
100
AcDbLine
  8
CADDY_2
 62
256
370
-1
  6
CONTINUOUS
 10
212.0089721679688068
 20
17.5675354003906214
 30
0.0
 11
212.1197509765625
 21
17.5675354003906214
 31
0.0
  0
LINE
  5
44C
100
AcDbEntity
100
AcDbLine
  8
CADDY_2
 62
256
370
-1
  6
CONTINUOUS
 10
212.4889526367188068
 20
17.5675354003906214
 30
0.0
 11
212.5627899169921875
 21
17.5675354003906214
 31
0.0
  0
LINE
  5
44D
100
AcDbEntity
100
AcDbLine
  8
CADDY_2
 62
256
370
-1
  6
CONTINUOUS
 10
212.7473907470703125
 20
17.5675354003906214
 30
0.0
 11
212.8212432861328125
 21
17.5675354003906214
 31
0.0
  0
LINE
  5
44E
100
AcDbEntity
100
AcDbLine
  8
CADDY_2
 62
256
370
-1
  6
CONTINUOUS
 10
213.1904754638671875
 20
17.5675354003906214
 30
0.0
 11
213.2643280029296875
 21
17.5675354003906214
 31
0.0
  0
LINE
  5
44F
100
AcDbEntity
100
AcDbLine
  8
CADDY_2
 62
256
370
-1
  6
CONTINUOUS
 10
213.5966186523438068
 20
17.5675354003906214
 30
0.0
 11
213.6704559326171875
 21
17.5675354003906214
 31
0.0
  0
LINE
  5
450
100
AcDbEntity
100
AcDbLine
  8
CADDY_2
 62
256
370
-1
  6
CONTINUOUS
 10
213.9658203125
 20
17.5675354003906214
 30
0.0
 11
214.0027618408203125
 21
17.5675354003906214
 31
0.0
  0
LINE
  5
451
100
AcDbEntity
100
AcDbLine
  8
CADDY_2
 62
256
370
-1
  6
CONTINUOUS
 10
214.3719940185546875
 20
17.5675354003906214
 30
0.0
 11
214.4827270507811932
 21
17.5675354003906214
 31
0.0
  0
LINE
  5
452
100
AcDbEntity
100
AcDbLine
  8
CADDY_2
 62
256
370
-1
  6
CONTINUOUS
 10
214.7781066894530966
 20
17.5675354003906214
 30
0.0
 11
214.8519744873046875
 21
17.5675354003906214
 31
0.0
  0
LINE
  5
453
100
AcDbEntity
100
AcDbLine
  8
CADDY_2
 62
256
370
-1
  6
CONTINUOUS
 10
215.22119140625
 20
17.5675354003906214
 30
0.0
 11
215.2581024169921875
 21
17.5675354003906214
 31
0.0
  0
LINE
  5
454
100
AcDbEntity
100
AcDbLine
  8
CADDY_2
 62
256
370
-1
  6
CONTINUOUS
 10
215.4057922363280966
 20
17.5675354003906214
 30
0.0
 11
215.4427032470703125
 21
17.5675354003906214
 31
0.0
  0
LINE
  5
455
100
AcDbEntity
100
AcDbLine
  8
CADDY_2
 62
256
370
-1
  6
CONTINUOUS
 10
215.8119506835938068
 20
17.5675354003906214
 30
0.0
 11
215.9226837158203125
 21
17.5675354003906214
 31
0.0
  0
LINE
  5
456
100
AcDbEntity
100
AcDbLine
  8
CADDY_2
 62
256
370
-1
  6
CONTINUOUS
 10
216.2180633544921875
 20
17.5675354003906214
 30
0.0
 11
216.2919311523438068
 21
17.5675354003906214
 31
0.0
  0
LINE
  5
457
100
AcDbEntity
100
AcDbLine
  8
CADDY_2
 62
256
370
-1
  6
CONTINUOUS
 10
216.5872802734375
 20
17.5675354003906214
 30
0.0
 11
216.6980590820311932
 21
17.5675354003906214
 31
0.0
  0
LINE
  5
458
100
AcDbEntity
100
AcDbLine
  8
CADDY_2
 62
256
370
-1
  6
CONTINUOUS
 10
216.8826599121094034
 20
17.5675354003906214
 30
0.0
 11
216.9196014404296875
 21
17.5675354003906214
 31
0.0
  0
LINE
  5
459
100
AcDbEntity
100
AcDbLine
  8
CADDY_2
 62
256
370
-1
  6
CONTINUOUS
 10
217.2518920898438068
 20
17.5675354003906214
 30
0.0
 11
217.3626403808594034
 21
17.5675354003906214
 31
0.0
  0
LINE
  5
45A
100
AcDbEntity
100
AcDbLine
  8
CADDY_2
 62
256
370
-1
  6
CONTINUOUS
 10
217.6580352783203125
 20
17.5675354003906214
 30
0.0
 11
217.7687835693359091
 21
17.5675354003906214
 31
0.0
  0
LINE
  5
45B
100
AcDbEntity
100
AcDbLine
  8
CADDY_2
 62
256
370
-1
  6
CONTINUOUS
 10
218.1011047363280966
 20
17.5675354003906214
 30
0.0
 11
218.1380157470703125
 21
17.5675354003906214
 31
0.0
  0
LINE
  5
45C
100
AcDbEntity
100
AcDbLine
  8
CADDY_2
 62
256
370
-1
  6
CONTINUOUS
 10
218.6918487548828125
 20
17.5675354003906214
 30
0.0
 11
218.8026123046875
 21
17.5675354003906214
 31
0.0
  0
LINE
  5
45D
100
AcDbEntity
100
AcDbLine
  8
CADDY_2
 62
256
370
-1
  6
CONTINUOUS
 10
219.1349029541015909
 20
17.5675354003906214
 30
0.0
 11
219.208740234375
 21
17.5675354003906214
 31
0.0
  0
LINE
  5
45E
100
AcDbEntity
100
AcDbLine
  8
CADDY_2
 62
256
370
-1
  6
CONTINUOUS
 10
219.4671783447265909
 20
17.5675354003906214
 30
0.0
 11
219.5041351318359091
 21
17.5675354003906214
 31
0.0
  0
LINE
  5
45F
100
AcDbEntity
100
AcDbLine
  8
CADDY_2
 62
256
370
-1
  6
CONTINUOUS
 10
219.6887359619140909
 20
17.5675354003906214
 30
0.0
 11
219.83642578125
 21
17.5675354003906214
 31
0.0
  0
LINE
  5
460
100
AcDbEntity
100
AcDbLine
  8
CADDY_2
 62
256
370
-1
  6
CONTINUOUS
 10
220.0210266113280966
 20
17.5675354003906214
 30
0.0
 11
220.0949096679688068
 21
17.5675354003906214
 31
0.0
  0
LINE
  5
461
100
AcDbEntity
100
AcDbLine
  8
CADDY_2
 62
256
370
-1
  6
CONTINUOUS
 10
220.4271850585938068
 20
17.5675354003906214
 30
0.0
 11
220.5010223388671875
 21
17.5675354003906214
 31
0.0
  0
LINE
  5
462
100
AcDbEntity
100
AcDbLine
  8
CADDY_2
 62
256
370
-1
  6
CONTINUOUS
 10
220.7964019775390909
 20
17.5675354003906214
 30
0.0
 11
220.9071807861328125
 21
17.5675354003906214
 31
0.0
  0
LINE
  5
463
100
AcDbEntity
100
AcDbLine
  8
CADDY_2
 62
256
370
-1
  6
CONTINUOUS
 10
221.1286926269530966
 20
17.5675354003906214
 30
0.0
 11
221.2025146484375
 21
17.5675354003906214
 31
0.0
  0
LINE
  5
464
100
AcDbEntity
100
AcDbLine
  8
CADDY_2
 62
256
370
-1
  6
CONTINUOUS
 10
221.5717620849609091
 20
17.5675354003906214
 30
0.0
 11
221.6455841064453125
 21
17.5675354003906214
 31
0.0
  0
LINE
  5
465
100
AcDbEntity
100
AcDbLine
  8
CADDY_2
 62
256
370
-1
  6
CONTINUOUS
 10
204.9199523925780966
 20
17.6041107177734411
 30
0.0
 11
204.9938049316405966
 21
17.6041107177734411
 31
0.0
  0
LINE
  5
466
100
AcDbEntity
100
AcDbLine
  8
CADDY_2
 62
256
370
-1
  6
CONTINUOUS
 10
205.3261108398438068
 20
17.6041107177734411
 30
0.0
 11
205.3630218505859091
 21
17.6041107177734411
 31
0.0
  0
LINE
  5
467
100
AcDbEntity
100
AcDbLine
  8
CADDY_2
 62
256
370
-1
  6
CONTINUOUS
 10
205.5845642089844034
 20
17.6041107177734411
 30
0.0
 11
205.6584014892578125
 21
17.6041107177734411
 31
0.0
  0
LINE
  5
468
100
AcDbEntity
100
AcDbLine
  8
CADDY_2
 62
256
370
-1
  6
CONTINUOUS
 10
205.9906921386719034
 20
17.6041107177734411
 30
0.0
 11
206.0276031494140909
 21
17.6041107177734411
 31
0.0
  0
LINE
  5
469
100
AcDbEntity
100
AcDbLine
  8
CADDY_2
 62
256
370
-1
  6
CONTINUOUS
 10
206.2122039794921875
 20
17.6041107177734411
 30
0.0
 11
206.2860870361328125
 21
17.6041107177734411
 31
0.0
  0
LINE
  5
46A
100
AcDbEntity
100
AcDbLine
  8
CADDY_2
 62
256
370
-1
  6
CONTINUOUS
 10
206.6183776855469034
 20
17.6041107177734411
 30
0.0
 11
206.6552734375
 21
17.6041107177734411
 31
0.0
  0
LINE
  5
46B
100
AcDbEntity
100
AcDbLine
  8
CADDY_2
 62
256
370
-1
  6
CONTINUOUS
 10
206.8768310546875
 20
17.6041107177734411
 30
0.0
 11
206.9506683349609091
 21
17.6041107177734411
 31
0.0
  0
LINE
  5
46C
100
AcDbEntity
100
AcDbLine
  8
CADDY_2
 62
256
370
-1
  6
CONTINUOUS
 10
207.1722106933594034
 20
17.6041107177734411
 30
0.0
 11
207.2829742431640909
 21
17.6041107177734411
 31
0.0
  0
LINE
  5
46D
100
AcDbEntity
100
AcDbLine
  8
CADDY_2
 62
256
370
-1
  6
CONTINUOUS
 10
207.7629547119140909
 20
17.6041107177734411
 30
0.0
 11
207.8368072509765909
 21
17.6041107177734411
 31
0.0
  0
LINE
  5
46E
100
AcDbEntity
100
AcDbLine
  8
CADDY_2
 62
256
370
-1
  6
CONTINUOUS
 10
208.3536987304688068
 20
17.6041107177734411
 30
0.0
 11
208.4275360107421875
 21
17.6041107177734411
 31
0.0
  0
LINE
  5
46F
100
AcDbEntity
100
AcDbLine
  8
CADDY_2
 62
256
370
-1
  6
CONTINUOUS
 10
208.6121673583984091
 20
17.6041107177734411
 30
0.0
 11
208.722900390625
 21
17.6041107177734411
 31
0.0
  0
LINE
  5
470
100
AcDbEntity
100
AcDbLine
  8
CADDY_2
 62
256
370
-1
  6
CONTINUOUS
 10
208.9444732666015909
 20
17.6041107177734411
 30
0.0
 11
209.0552062988280966
 21
17.6041107177734411
 31
0.0
  0
LINE
  5
471
100
AcDbEntity
100
AcDbLine
  8
CADDY_2
 62
256
370
-1
  6
CONTINUOUS
 10
209.4613800048828125
 20
17.6041107177734411
 30
0.0
 11
209.5721435546875
 21
17.6041107177734411
 31
0.0
  0
LINE
  5
472
100
AcDbEntity
100
AcDbLine
  8
CADDY_2
 62
256
370
-1
  6
CONTINUOUS
 10
209.8305816650390909
 20
17.6041107177734411
 30
0.0
 11
209.8674774169921875
 21
17.6041107177734411
 31
0.0
  0
LINE
  5
473
100
AcDbEntity
100
AcDbLine
  8
CADDY_2
 62
256
370
-1
  6
CONTINUOUS
 10
210.0151824951171875
 20
17.6041107177734411
 30
0.0
 11
210.1998138427734091
 21
17.6041107177734411
 31
0.0
  0
LINE
  5
474
100
AcDbEntity
100
AcDbLine
  8
CADDY_2
 62
256
370
-1
  6
CONTINUOUS
 10
210.3844299316405966
 20
17.6041107177734411
 30
0.0
 11
210.458251953125
 21
17.6041107177734411
 31
0.0
  0
LINE
  5
475
100
AcDbEntity
100
AcDbLine
  8
CADDY_2
 62
256
370
-1
  6
CONTINUOUS
 10
210.7167205810546875
 20
17.6041107177734411
 30
0.0
 11
210.7536315917969034
 21
17.6041107177734411
 31
0.0
  0
LINE
  5
476
100
AcDbEntity
100
AcDbLine
  8
CADDY_2
 62
256
370
-1
  6
CONTINUOUS
 10
211.0859222412109091
 20
17.6041107177734411
 30
0.0
 11
211.1967163085938068
 21
17.6041107177734411
 31
0.0
  0
LINE
  5
477
100
AcDbEntity
100
AcDbLine
  8
CADDY_2
 62
256
370
-1
  6
CONTINUOUS
 10
211.418212890625
 20
17.6041107177734411
 30
0.0
 11
211.4551239013671875
 21
17.6041107177734411
 31
0.0
  0
LINE
  5
478
100
AcDbEntity
100
AcDbLine
  8
CADDY_2
 62
256
370
-1
  6
CONTINUOUS
 10
211.7505187988280966
 20
17.6041107177734411
 30
0.0
 11
211.7874145507811932
 21
17.6041107177734411
 31
0.0
  0
LINE
  5
479
100
AcDbEntity
100
AcDbLine
  8
CADDY_2
 62
256
370
-1
  6
CONTINUOUS
 10
211.9720458984375
 20
17.6041107177734411
 30
0.0
 11
212.0828247070311932
 21
17.6041107177734411
 31
0.0
  0
LINE
  5
47A
100
AcDbEntity
100
AcDbLine
  8
CADDY_2
 62
256
370
-1
  6
CONTINUOUS
 10
212.5258941650390909
 20
17.6041107177734411
 30
0.0
 11
212.5627899169921875
 21
17.6041107177734411
 31
0.0
  0
LINE
  5
47B
100
AcDbEntity
100
AcDbLine
  8
CADDY_2
 62
256
370
-1
  6
CONTINUOUS
 10
212.7843475341796875
 20
17.6041107177734411
 30
0.0
 11
212.8581848144530966
 21
17.6041107177734411
 31
0.0
  0
LINE
  5
47C
100
AcDbEntity
100
AcDbLine
  8
CADDY_2
 62
256
370
-1
  6
CONTINUOUS
 10
213.2274017333984091
 20
17.6041107177734411
 30
0.0
 11
213.3012390136719034
 21
17.6041107177734411
 31
0.0
  0
LINE
  5
47D
100
AcDbEntity
100
AcDbLine
  8
CADDY_2
 62
256
370
-1
  6
CONTINUOUS
 10
213.6335144042969034
 20
17.6041107177734411
 30
0.0
 11
213.7073669433594034
 21
17.6041107177734411
 31
0.0
  0
LINE
  5
47E
100
AcDbEntity
100
AcDbLine
  8
CADDY_2
 62
256
370
-1
  6
CONTINUOUS
 10
214.0027618408203125
 20
17.6041107177734411
 30
0.0
 11
214.0396881103515909
 21
17.6041107177734411
 31
0.0
  0
LINE
  5
47F
100
AcDbEntity
100
AcDbLine
  8
CADDY_2
 62
256
370
-1
  6
CONTINUOUS
 10
214.3350372314453125
 20
17.6041107177734411
 30
0.0
 11
214.5196838378905966
 21
17.6041107177734411
 31
0.0
  0
LINE
  5
480
100
AcDbEntity
100
AcDbLine
  8
CADDY_2
 62
256
370
-1
  6
CONTINUOUS
 10
214.8150177001953125
 20
17.6041107177734411
 30
0.0
 11
214.8889007568359091
 21
17.6041107177734411
 31
0.0
  0
LINE
  5
481
100
AcDbEntity
100
AcDbLine
  8
CADDY_2
 62
256
370
-1
  6
CONTINUOUS
 10
215.22119140625
 20
17.6041107177734411
 30
0.0
 11
215.2581024169921875
 21
17.6041107177734411
 31
0.0
  0
LINE
  5
482
100
AcDbEntity
100
AcDbLine
  8
CADDY_2
 62
256
370
-1
  6
CONTINUOUS
 10
215.4427032470703125
 20
17.6041107177734411
 30
0.0
 11
215.4796600341796875
 21
17.6041107177734411
 31
0.0
  0
LINE
  5
483
100
AcDbEntity
100
AcDbLine
  8
CADDY_2
 62
256
370
-1
  6
CONTINUOUS
 10
215.7749938964844034
 20
17.6041107177734411
 30
0.0
 11
215.9596405029296875
 21
17.6041107177734411
 31
0.0
  0
LINE
  5
484
100
AcDbEntity
100
AcDbLine
  8
CADDY_2
 62
256
370
-1
  6
CONTINUOUS
 10
216.2549743652344034
 20
17.6041107177734411
 30
0.0
 11
216.3288421630859091
 21
17.6041107177734411
 31
0.0
  0
LINE
  5
485
100
AcDbEntity
100
AcDbLine
  8
CADDY_2
 62
256
370
-1
  6
CONTINUOUS
 10
216.6242370605469034
 20
17.6041107177734411
 30
0.0
 11
216.7349853515625
 21
17.6041107177734411
 31
0.0
  0
LINE
  5
486
100
AcDbEntity
100
AcDbLine
  8
CADDY_2
 62
256
370
-1
  6
CONTINUOUS
 10
216.8826599121094034
 20
17.6041107177734411
 30
0.0
 11
216.9196014404296875
 21
17.6041107177734411
 31
0.0
  0
LINE
  5
487
100
AcDbEntity
100
AcDbLine
  8
CADDY_2
 62
256
370
-1
  6
CONTINUOUS
 10
217.2518920898438068
 20
17.6041107177734411
 30
0.0
 11
217.3626403808594034
 21
17.6041107177734411
 31
0.0
  0
LINE
  5
488
100
AcDbEntity
100
AcDbLine
  8
CADDY_2
 62
256
370
-1
  6
CONTINUOUS
 10
217.6949615478515909
 20
17.6041107177734411
 30
0.0
 11
217.7687835693359091
 21
17.6041107177734411
 31
0.0
  0
LINE
  5
489
100
AcDbEntity
100
AcDbLine
  8
CADDY_2
 62
256
370
-1
  6
CONTINUOUS
 10
218.1011047363280966
 20
17.6041107177734411
 30
0.0
 11
218.1380157470703125
 21
17.6041107177734411
 31
0.0
  0
LINE
  5
48A
100
AcDbEntity
100
AcDbLine
  8
CADDY_2
 62
256
370
-1
  6
CONTINUOUS
 10
218.6549224853515909
 20
17.6041107177734411
 30
0.0
 11
218.8026123046875
 21
17.6041107177734411
 31
0.0
  0
LINE
  5
48B
100
AcDbEntity
100
AcDbLine
  8
CADDY_2
 62
256
370
-1
  6
CONTINUOUS
 10
219.1718444824219034
 20
17.6041107177734411
 30
0.0
 11
219.2456665039061932
 21
17.6041107177734411
 31
0.0
  0
LINE
  5
48C
100
AcDbEntity
100
AcDbLine
  8
CADDY_2
 62
256
370
-1
  6
CONTINUOUS
 10
219.5041351318359091
 20
17.6041107177734411
 30
0.0
 11
219.5410461425780966
 21
17.6041107177734411
 31
0.0
  0
LINE
  5
48D
100
AcDbEntity
100
AcDbLine
  8
CADDY_2
 62
256
370
-1
  6
CONTINUOUS
 10
219.6887359619140909
 20
17.6041107177734411
 30
0.0
 11
219.8733367919921875
 21
17.6041107177734411
 31
0.0
  0
LINE
  5
48E
100
AcDbEntity
100
AcDbLine
  8
CADDY_2
 62
256
370
-1
  6
CONTINUOUS
 10
220.0579376220703125
 20
17.6041107177734411
 30
0.0
 11
220.1318054199219034
 21
17.6041107177734411
 31
0.0
  0
LINE
  5
48F
100
AcDbEntity
100
AcDbLine
  8
CADDY_2
 62
256
370
-1
  6
CONTINUOUS
 10
220.464111328125
 20
17.6041107177734411
 30
0.0
 11
220.5379333496094034
 21
17.6041107177734411
 31
0.0
  0
LINE
  5
490
100
AcDbEntity
100
AcDbLine
  8
CADDY_2
 62
256
370
-1
  6
CONTINUOUS
 10
220.8333129882811932
 20
17.6041107177734411
 30
0.0
 11
220.944091796875
 21
17.6041107177734411
 31
0.0
  0
LINE
  5
491
100
AcDbEntity
100
AcDbLine
  8
CADDY_2
 62
256
370
-1
  6
CONTINUOUS
 10
221.1656036376953125
 20
17.6041107177734411
 30
0.0
 11
221.2394866943359091
 21
17.6041107177734411
 31
0.0
  0
LINE
  5
492
100
AcDbEntity
100
AcDbLine
  8
CADDY_2
 62
256
370
-1
  6
CONTINUOUS
 10
221.6086883544921875
 20
17.6041107177734411
 30
0.0
 11
221.6825256347655966
 21
17.6041107177734411
 31
0.0
  0
LINE
  5
493
100
AcDbEntity
100
AcDbLine
  8
CADDY_2
 62
256
370
-1
  6
CONTINUOUS
 10
204.9199523925780966
 20
17.64068603515625
 30
0.0
 11
204.9938049316405966
 21
17.64068603515625
 31
0.0
  0
LINE
  5
494
100
AcDbEntity
100
AcDbLine
  8
CADDY_2
 62
256
370
-1
  6
CONTINUOUS
 10
205.1415100097655966
 20
17.64068603515625
 30
0.0
 11
205.1784210205078125
 21
17.64068603515625
 31
0.0
  0
LINE
  5
495
100
AcDbEntity
100
AcDbLine
  8
CADDY_2
 62
256
370
-1
  6
CONTINUOUS
 10
205.5845642089844034
 20
17.64068603515625
 30
0.0
 11
205.6584014892578125
 21
17.64068603515625
 31
0.0
  0
LINE
  5
496
100
AcDbEntity
100
AcDbLine
  8
CADDY_2
 62
256
370
-1
  6
CONTINUOUS
 10
206.0276031494140909
 20
17.64068603515625
 30
0.0
 11
206.0645599365234091
 21
17.64068603515625
 31
0.0
  0
LINE
  5
497
100
AcDbEntity
100
AcDbLine
  8
CADDY_2
 62
256
370
-1
  6
CONTINUOUS
 10
206.2122039794921875
 20
17.64068603515625
 30
0.0
 11
206.2860870361328125
 21
17.64068603515625
 31
0.0
  0
LINE
  5
498
100
AcDbEntity
100
AcDbLine
  8
CADDY_2
 62
256
370
-1
  6
CONTINUOUS
 10
206.4337768554688068
 20
17.64068603515625
 30
0.0
 11
206.4706878662109091
 21
17.64068603515625
 31
0.0
  0
LINE
  5
499
100
AcDbEntity
100
AcDbLine
  8
CADDY_2
 62
256
370
-1
  6
CONTINUOUS
 10
206.8768310546875
 20
17.64068603515625
 30
0.0
 11
206.9506683349609091
 21
17.64068603515625
 31
0.0
  0
LINE
  5
49A
100
AcDbEntity
100
AcDbLine
  8
CADDY_2
 62
256
370
-1
  6
CONTINUOUS
 10
207.1352691650390909
 20
17.64068603515625
 30
0.0
 11
207.2829742431640909
 21
17.64068603515625
 31
0.0
  0
LINE
  5
49B
100
AcDbEntity
100
AcDbLine
  8
CADDY_2
 62
256
370
-1
  6
CONTINUOUS
 10
207.7629547119140909
 20
17.64068603515625
 30
0.0
 11
207.8368072509765909
 21
17.64068603515625
 31
0.0
  0
LINE
  5
49C
100
AcDbEntity
100
AcDbLine
  8
CADDY_2
 62
256
370
-1
  6
CONTINUOUS
 10
208.3536987304688068
 20
17.64068603515625
 30
0.0
 11
208.4275360107421875
 21
17.64068603515625
 31
0.0
  0
LINE
  5
49D
100
AcDbEntity
100
AcDbLine
  8
CADDY_2
 62
256
370
-1
  6
CONTINUOUS
 10
208.6121673583984091
 20
17.64068603515625
 30
0.0
 11
208.722900390625
 21
17.64068603515625
 31
0.0
  0
LINE
  5
49E
100
AcDbEntity
100
AcDbLine
  8
CADDY_2
 62
256
370
-1
  6
CONTINUOUS
 10
208.9444732666015909
 20
17.64068603515625
 30
0.0
 11
209.0182952880859091
 21
17.64068603515625
 31
0.0
  0
LINE
  5
49F
100
AcDbEntity
100
AcDbLine
  8
CADDY_2
 62
256
370
-1
  6
CONTINUOUS
 10
209.4982757568359091
 20
17.64068603515625
 30
0.0
 11
209.6090545654296875
 21
17.64068603515625
 31
0.0
  0
LINE
  5
4A0
100
AcDbEntity
100
AcDbLine
  8
CADDY_2
 62
256
370
-1
  6
CONTINUOUS
 10
209.8305816650390909
 20
17.64068603515625
 30
0.0
 11
209.8674774169921875
 21
17.64068603515625
 31
0.0
  0
LINE
  5
4A1
100
AcDbEntity
100
AcDbLine
  8
CADDY_2
 62
256
370
-1
  6
CONTINUOUS
 10
210.0151824951171875
 20
17.64068603515625
 30
0.0
 11
210.1998138427734091
 21
17.64068603515625
 31
0.0
  0
LINE
  5
4A2
100
AcDbEntity
100
AcDbLine
  8
CADDY_2
 62
256
370
-1
  6
CONTINUOUS
 10
210.3844299316405966
 20
17.64068603515625
 30
0.0
 11
210.458251953125
 21
17.64068603515625
 31
0.0
  0
LINE
  5
4A3
100
AcDbEntity
100
AcDbLine
  8
CADDY_2
 62
256
370
-1
  6
CONTINUOUS
 10
210.7536315917969034
 20
17.64068603515625
 30
0.0
 11
210.7905426025390909
 21
17.64068603515625
 31
0.0
  0
LINE
  5
4A4
100
AcDbEntity
100
AcDbLine
  8
CADDY_2
 62
256
370
-1
  6
CONTINUOUS
 10
211.0859222412109091
 20
17.64068603515625
 30
0.0
 11
211.1967163085938068
 21
17.64068603515625
 31
0.0
  0
LINE
  5
4A5
100
AcDbEntity
100
AcDbLine
  8
CADDY_2
 62
256
370
-1
  6
CONTINUOUS
 10
211.418212890625
 20
17.64068603515625
 30
0.0
 11
211.4551239013671875
 21
17.64068603515625
 31
0.0
  0
LINE
  5
4A6
100
AcDbEntity
100
AcDbLine
  8
CADDY_2
 62
256
370
-1
  6
CONTINUOUS
 10
211.7505187988280966
 20
17.64068603515625
 30
0.0
 11
211.8243713378905966
 21
17.64068603515625
 31
0.0
  0
LINE
  5
4A7
100
AcDbEntity
100
AcDbLine
  8
CADDY_2
 62
256
370
-1
  6
CONTINUOUS
 10
211.9720458984375
 20
17.64068603515625
 30
0.0
 11
212.0828247070311932
 21
17.64068603515625
 31
0.0
  0
LINE
  5
4A8
100
AcDbEntity
100
AcDbLine
  8
CADDY_2
 62
256
370
-1
  6
CONTINUOUS
 10
212.5627899169921875
 20
17.64068603515625
 30
0.0
 11
212.5997467041015909
 21
17.64068603515625
 31
0.0
  0
LINE
  5
4A9
100
AcDbEntity
100
AcDbLine
  8
CADDY_2
 62
256
370
-1
  6
CONTINUOUS
 10
212.7843475341796875
 20
17.64068603515625
 30
0.0
 11
212.8581848144530966
 21
17.64068603515625
 31
0.0
  0
LINE
  5
4AA
100
AcDbEntity
100
AcDbLine
  8
CADDY_2
 62
256
370
-1
  6
CONTINUOUS
 10
213.2274017333984091
 20
17.64068603515625
 30
0.0
 11
213.3012390136719034
 21
17.64068603515625
 31
0.0
  0
LINE
  5
4AB
100
AcDbEntity
100
AcDbLine
  8
CADDY_2
 62
256
370
-1
  6
CONTINUOUS
 10
213.6335144042969034
 20
17.64068603515625
 30
0.0
 11
213.7073669433594034
 21
17.64068603515625
 31
0.0
  0
LINE
  5
4AC
100
AcDbEntity
100
AcDbLine
  8
CADDY_2
 62
256
370
-1
  6
CONTINUOUS
 10
214.0027618408203125
 20
17.64068603515625
 30
0.0
 11
214.0396881103515909
 21
17.64068603515625
 31
0.0
  0
LINE
  5
4AD
100
AcDbEntity
100
AcDbLine
  8
CADDY_2
 62
256
370
-1
  6
CONTINUOUS
 10
214.3350372314453125
 20
17.64068603515625
 30
0.0
 11
214.5196838378905966
 21
17.64068603515625
 31
0.0
  0
LINE
  5
4AE
100
AcDbEntity
100
AcDbLine
  8
CADDY_2
 62
256
370
-1
  6
CONTINUOUS
 10
214.8150177001953125
 20
17.64068603515625
 30
0.0
 11
214.8889007568359091
 21
17.64068603515625
 31
0.0
  0
LINE
  5
4AF
100
AcDbEntity
100
AcDbLine
  8
CADDY_2
 62
256
370
-1
  6
CONTINUOUS
 10
215.0365905761719034
 20
17.64068603515625
 30
0.0
 11
215.0735015869140909
 21
17.64068603515625
 31
0.0
  0
LINE
  5
4B0
100
AcDbEntity
100
AcDbLine
  8
CADDY_2
 62
256
370
-1
  6
CONTINUOUS
 10
215.4427032470703125
 20
17.64068603515625
 30
0.0
 11
215.4796600341796875
 21
17.64068603515625
 31
0.0
  0
LINE
  5
4B1
100
AcDbEntity
100
AcDbLine
  8
CADDY_2
 62
256
370
-1
  6
CONTINUOUS
 10
215.7749938964844034
 20
17.64068603515625
 30
0.0
 11
215.9596405029296875
 21
17.64068603515625
 31
0.0
  0
LINE
  5
4B2
100
AcDbEntity
100
AcDbLine
  8
CADDY_2
 62
256
370
-1
  6
CONTINUOUS
 10
216.2549743652344034
 20
17.64068603515625
 30
0.0
 11
216.3288421630859091
 21
17.64068603515625
 31
0.0
  0
LINE
  5
4B3
100
AcDbEntity
100
AcDbLine
  8
CADDY_2
 62
256
370
-1
  6
CONTINUOUS
 10
216.6242370605469034
 20
17.64068603515625
 30
0.0
 11
216.7349853515625
 21
17.64068603515625
 31
0.0
  0
LINE
  5
4B4
100
AcDbEntity
100
AcDbLine
  8
CADDY_2
 62
256
370
-1
  6
CONTINUOUS
 10
216.9196014404296875
 20
17.64068603515625
 30
0.0
 11
216.9565277099609091
 21
17.64068603515625
 31
0.0
  0
LINE
  5
4B5
100
AcDbEntity
100
AcDbLine
  8
CADDY_2
 62
256
370
-1
  6
CONTINUOUS
 10
217.2518920898438068
 20
17.64068603515625
 30
0.0
 11
217.3626403808594034
 21
17.64068603515625
 31
0.0
  0
LINE
  5
4B6
100
AcDbEntity
100
AcDbLine
  8
CADDY_2
 62
256
370
-1
  6
CONTINUOUS
 10
217.6949615478515909
 20
17.64068603515625
 30
0.0
 11
217.7687835693359091
 21
17.64068603515625
 31
0.0
  0
LINE
  5
4B7
100
AcDbEntity
100
AcDbLine
  8
CADDY_2
 62
256
370
-1
  6
CONTINUOUS
 10
218.1380157470703125
 20
17.64068603515625
 30
0.0
 11
218.1749114990234091
 21
17.64068603515625
 31
0.0
  0
LINE
  5
4B8
100
AcDbEntity
100
AcDbLine
  8
CADDY_2
 62
256
370
-1
  6
CONTINUOUS
 10
218.6549224853515909
 20
17.64068603515625
 30
0.0
 11
218.7656860351561932
 21
17.64068603515625
 31
0.0
  0
LINE
  5
4B9
100
AcDbEntity
100
AcDbLine
  8
CADDY_2
 62
256
370
-1
  6
CONTINUOUS
 10
219.1349029541015909
 20
17.64068603515625
 30
0.0
 11
219.2456665039061932
 21
17.64068603515625
 31
0.0
  0
LINE
  5
4BA
100
AcDbEntity
100
AcDbLine
  8
CADDY_2
 62
256
370
-1
  6
CONTINUOUS
 10
219.5041351318359091
 20
17.64068603515625
 30
0.0
 11
219.5410461425780966
 21
17.64068603515625
 31
0.0
  0
LINE
  5
4BB
100
AcDbEntity
100
AcDbLine
  8
CADDY_2
 62
256
370
-1
  6
CONTINUOUS
 10
219.6887359619140909
 20
17.64068603515625
 30
0.0
 11
219.8733367919921875
 21
17.64068603515625
 31
0.0
  0
LINE
  5
4BC
100
AcDbEntity
100
AcDbLine
  8
CADDY_2
 62
256
370
-1
  6
CONTINUOUS
 10
220.0579376220703125
 20
17.64068603515625
 30
0.0
 11
220.1318054199219034
 21
17.64068603515625
 31
0.0
  0
LINE
  5
4BD
100
AcDbEntity
100
AcDbLine
  8
CADDY_2
 62
256
370
-1
  6
CONTINUOUS
 10
220.464111328125
 20
17.64068603515625
 30
0.0
 11
220.5379333496094034
 21
17.64068603515625
 31
0.0
  0
LINE
  5
4BE
100
AcDbEntity
100
AcDbLine
  8
CADDY_2
 62
256
370
-1
  6
CONTINUOUS
 10
220.8333129882811932
 20
17.64068603515625
 30
0.0
 11
220.944091796875
 21
17.64068603515625
 31
0.0
  0
LINE
  5
4BF
100
AcDbEntity
100
AcDbLine
  8
CADDY_2
 62
256
370
-1
  6
CONTINUOUS
 10
221.1656036376953125
 20
17.64068603515625
 30
0.0
 11
221.2394866943359091
 21
17.64068603515625
 31
0.0
  0
LINE
  5
4C0
100
AcDbEntity
100
AcDbLine
  8
CADDY_2
 62
256
370
-1
  6
CONTINUOUS
 10
221.6086883544921875
 20
17.64068603515625
 30
0.0
 11
221.6825256347655966
 21
17.64068603515625
 31
0.0
  0
LINE
  5
4C1
100
AcDbEntity
100
AcDbLine
  8
CADDY_2
 62
256
370
-1
  6
CONTINUOUS
 10
204.9199523925780966
 20
17.6772613525390589
 30
0.0
 11
204.9938049316405966
 21
17.6772613525390589
 31
0.0
  0
LINE
  5
4C2
100
AcDbEntity
100
AcDbLine
  8
CADDY_2
 62
256
370
-1
  6
CONTINUOUS
 10
205.1415100097655966
 20
17.6772613525390589
 30
0.0
 11
205.1784210205078125
 21
17.6772613525390589
 31
0.0
  0
LINE
  5
4C3
100
AcDbEntity
100
AcDbLine
  8
CADDY_2
 62
256
370
-1
  6
CONTINUOUS
 10
205.5845642089844034
 20
17.6772613525390589
 30
0.0
 11
205.6584014892578125
 21
17.6772613525390589
 31
0.0
  0
LINE
  5
4C4
100
AcDbEntity
100
AcDbLine
  8
CADDY_2
 62
256
370
-1
  6
CONTINUOUS
 10
206.2122039794921875
 20
17.6772613525390589
 30
0.0
 11
206.2860870361328125
 21
17.6772613525390589
 31
0.0
  0
LINE
  5
4C5
100
AcDbEntity
100
AcDbLine
  8
CADDY_2
 62
256
370
-1
  6
CONTINUOUS
 10
206.4337768554688068
 20
17.6772613525390589
 30
0.0
 11
206.4706878662109091
 21
17.6772613525390589
 31
0.0
  0
LINE
  5
4C6
100
AcDbEntity
100
AcDbLine
  8
CADDY_2
 62
256
370
-1
  6
CONTINUOUS
 10
206.8768310546875
 20
17.6772613525390589
 30
0.0
 11
206.9506683349609091
 21
17.6772613525390589
 31
0.0
  0
LINE
  5
4C7
100
AcDbEntity
100
AcDbLine
  8
CADDY_2
 62
256
370
-1
  6
CONTINUOUS
 10
207.0983734130859091
 20
17.6772613525390589
 30
0.0
 11
207.2460327148438068
 21
17.6772613525390589
 31
0.0
  0
LINE
  5
4C8
100
AcDbEntity
100
AcDbLine
  8
CADDY_2
 62
256
370
-1
  6
CONTINUOUS
 10
207.7629547119140909
 20
17.6772613525390589
 30
0.0
 11
207.8368072509765909
 21
17.6772613525390589
 31
0.0
  0
LINE
  5
4C9
100
AcDbEntity
100
AcDbLine
  8
CADDY_2
 62
256
370
-1
  6
CONTINUOUS
 10
208.3536987304688068
 20
17.6772613525390589
 30
0.0
 11
208.4275360107421875
 21
17.6772613525390589
 31
0.0
  0
LINE
  5
4CA
100
AcDbEntity
100
AcDbLine
  8
CADDY_2
 62
256
370
-1
  6
CONTINUOUS
 10
208.5752105712890909
 20
17.6772613525390589
 30
0.0
 11
208.6860046386719034
 21
17.6772613525390589
 31
0.0
  0
LINE
  5
4CB
100
AcDbEntity
100
AcDbLine
  8
CADDY_2
 62
256
370
-1
  6
CONTINUOUS
 10
208.9444732666015909
 20
17.6772613525390589
 30
0.0
 11
209.0182952880859091
 21
17.6772613525390589
 31
0.0
  0
LINE
  5
4CC
100
AcDbEntity
100
AcDbLine
  8
CADDY_2
 62
256
370
-1
  6
CONTINUOUS
 10
209.5351867675780966
 20
17.6772613525390589
 30
0.0
 11
209.6459808349609091
 21
17.6772613525390589
 31
0.0
  0
LINE
  5
4CD
100
AcDbEntity
100
AcDbLine
  8
CADDY_2
 62
256
370
-1
  6
CONTINUOUS
 10
209.8305816650390909
 20
17.6772613525390589
 30
0.0
 11
209.8674774169921875
 21
17.6772613525390589
 31
0.0
  0
LINE
  5
4CE
100
AcDbEntity
100
AcDbLine
  8
CADDY_2
 62
256
370
-1
  6
CONTINUOUS
 10
210.0151824951171875
 20
17.6772613525390589
 30
0.0
 11
210.1259460449219034
 21
17.6772613525390589
 31
0.0
  0
LINE
  5
4CF
100
AcDbEntity
100
AcDbLine
  8
CADDY_2
 62
256
370
-1
  6
CONTINUOUS
 10
210.1998138427734091
 20
17.6772613525390589
 30
0.0
 11
210.2367401123046875
 21
17.6772613525390589
 31
0.0
  0
LINE
  5
4D0
100
AcDbEntity
100
AcDbLine
  8
CADDY_2
 62
256
370
-1
  6
CONTINUOUS
 10
210.3844299316405966
 20
17.6772613525390589
 30
0.0
 11
210.458251953125
 21
17.6772613525390589
 31
0.0
  0
LINE
  5
4D1
100
AcDbEntity
100
AcDbLine
  8
CADDY_2
 62
256
370
-1
  6
CONTINUOUS
 10
210.7905426025390909
 20
17.6772613525390589
 30
0.0
 11
210.8274536132811932
 21
17.6772613525390589
 31
0.0
  0
LINE
  5
4D2
100
AcDbEntity
100
AcDbLine
  8
CADDY_2
 62
256
370
-1
  6
CONTINUOUS
 10
211.0859222412109091
 20
17.6772613525390589
 30
0.0
 11
211.1967163085938068
 21
17.6772613525390589
 31
0.0
  0
LINE
  5
4D3
100
AcDbEntity
100
AcDbLine
  8
CADDY_2
 62
256
370
-1
  6
CONTINUOUS
 10
211.7505187988280966
 20
17.6772613525390589
 30
0.0
 11
211.8243713378905966
 21
17.6772613525390589
 31
0.0
  0
LINE
  5
4D4
100
AcDbEntity
100
AcDbLine
  8
CADDY_2
 62
256
370
-1
  6
CONTINUOUS
 10
211.9720458984375
 20
17.6772613525390589
 30
0.0
 11
212.0828247070311932
 21
17.6772613525390589
 31
0.0
  0
LINE
  5
4D5
100
AcDbEntity
100
AcDbLine
  8
CADDY_2
 62
256
370
-1
  6
CONTINUOUS
 10
212.7843475341796875
 20
17.6772613525390589
 30
0.0
 11
212.8581848144530966
 21
17.6772613525390589
 31
0.0
  0
LINE
  5
4D6
100
AcDbEntity
100
AcDbLine
  8
CADDY_2
 62
256
370
-1
  6
CONTINUOUS
 10
213.2274017333984091
 20
17.6772613525390589
 30
0.0
 11
213.3012390136719034
 21
17.6772613525390589
 31
0.0
  0
LINE
  5
4D7
100
AcDbEntity
100
AcDbLine
  8
CADDY_2
 62
256
370
-1
  6
CONTINUOUS
 10
213.6335144042969034
 20
17.6772613525390589
 30
0.0
 11
213.7073669433594034
 21
17.6772613525390589
 31
0.0
  0
LINE
  5
4D8
100
AcDbEntity
100
AcDbLine
  8
CADDY_2
 62
256
370
-1
  6
CONTINUOUS
 10
214.0027618408203125
 20
17.6772613525390589
 30
0.0
 11
214.0396881103515909
 21
17.6772613525390589
 31
0.0
  0
LINE
  5
4D9
100
AcDbEntity
100
AcDbLine
  8
CADDY_2
 62
256
370
-1
  6
CONTINUOUS
 10
214.2981262207030966
 20
17.6772613525390589
 30
0.0
 11
214.5196838378905966
 21
17.6772613525390589
 31
0.0
  0
LINE
  5
4DA
100
AcDbEntity
100
AcDbLine
  8
CADDY_2
 62
256
370
-1
  6
CONTINUOUS
 10
214.8150177001953125
 20
17.6772613525390589
 30
0.0
 11
214.8889007568359091
 21
17.6772613525390589
 31
0.0
  0
LINE
  5
4DB
100
AcDbEntity
100
AcDbLine
  8
CADDY_2
 62
256
370
-1
  6
CONTINUOUS
 10
215.0365905761719034
 20
17.6772613525390589
 30
0.0
 11
215.0735015869140909
 21
17.6772613525390589
 31
0.0
  0
LINE
  5
4DC
100
AcDbEntity
100
AcDbLine
  8
CADDY_2
 62
256
370
-1
  6
CONTINUOUS
 10
215.4427032470703125
 20
17.6772613525390589
 30
0.0
 11
215.4796600341796875
 21
17.6772613525390589
 31
0.0
  0
LINE
  5
4DD
100
AcDbEntity
100
AcDbLine
  8
CADDY_2
 62
256
370
-1
  6
CONTINUOUS
 10
215.7380828857421875
 20
17.6772613525390589
 30
0.0
 11
215.9596405029296875
 21
17.6772613525390589
 31
0.0
  0
LINE
  5
4DE
100
AcDbEntity
100
AcDbLine
  8
CADDY_2
 62
256
370
-1
  6
CONTINUOUS
 10
216.2549743652344034
 20
17.6772613525390589
 30
0.0
 11
216.3288421630859091
 21
17.6772613525390589
 31
0.0
  0
LINE
  5
4DF
100
AcDbEntity
100
AcDbLine
  8
CADDY_2
 62
256
370
-1
  6
CONTINUOUS
 10
216.6242370605469034
 20
17.6772613525390589
 30
0.0
 11
216.7349853515625
 21
17.6772613525390589
 31
0.0
  0
LINE
  5
4E0
100
AcDbEntity
100
AcDbLine
  8
CADDY_2
 62
256
370
-1
  6
CONTINUOUS
 10
216.9565277099609091
 20
17.6772613525390589
 30
0.0
 11
216.9934387207030966
 21
17.6772613525390589
 31
0.0
  0
LINE
  5
4E1
100
AcDbEntity
100
AcDbLine
  8
CADDY_2
 62
256
370
-1
  6
CONTINUOUS
 10
217.2518920898438068
 20
17.6772613525390589
 30
0.0
 11
217.3626403808594034
 21
17.6772613525390589
 31
0.0
  0
LINE
  5
4E2
100
AcDbEntity
100
AcDbLine
  8
CADDY_2
 62
256
370
-1
  6
CONTINUOUS
 10
217.6949615478515909
 20
17.6772613525390589
 30
0.0
 11
217.7687835693359091
 21
17.6772613525390589
 31
0.0
  0
LINE
  5
4E3
100
AcDbEntity
100
AcDbLine
  8
CADDY_2
 62
256
370
-1
  6
CONTINUOUS
 10
218.1380157470703125
 20
17.6772613525390589
 30
0.0
 11
218.1749114990234091
 21
17.6772613525390589
 31
0.0
  0
LINE
  5
4E4
100
AcDbEntity
100
AcDbLine
  8
CADDY_2
 62
256
370
-1
  6
CONTINUOUS
 10
218.6549224853515909
 20
17.6772613525390589
 30
0.0
 11
218.7656860351561932
 21
17.6772613525390589
 31
0.0
  0
LINE
  5
4E5
100
AcDbEntity
100
AcDbLine
  8
CADDY_2
 62
256
370
-1
  6
CONTINUOUS
 10
219.0610656738280966
 20
17.6772613525390589
 30
0.0
 11
219.3564453125
 21
17.6772613525390589
 31
0.0
  0
LINE
  5
4E6
100
AcDbEntity
100
AcDbLine
  8
CADDY_2
 62
256
370
-1
  6
CONTINUOUS
 10
219.5041351318359091
 20
17.6772613525390589
 30
0.0
 11
219.5410461425780966
 21
17.6772613525390589
 31
0.0
  0
LINE
  5
4E7
100
AcDbEntity
100
AcDbLine
  8
CADDY_2
 62
256
370
-1
  6
CONTINUOUS
 10
219.6887359619140909
 20
17.6772613525390589
 30
0.0
 11
219.7994995117188068
 21
17.6772613525390589
 31
0.0
  0
LINE
  5
4E8
100
AcDbEntity
100
AcDbLine
  8
CADDY_2
 62
256
370
-1
  6
CONTINUOUS
 10
219.8733367919921875
 20
17.6772613525390589
 30
0.0
 11
219.9102478027344034
 21
17.6772613525390589
 31
0.0
  0
LINE
  5
4E9
100
AcDbEntity
100
AcDbLine
  8
CADDY_2
 62
256
370
-1
  6
CONTINUOUS
 10
220.0579376220703125
 20
17.6772613525390589
 30
0.0
 11
220.1318054199219034
 21
17.6772613525390589
 31
0.0
  0
LINE
  5
4EA
100
AcDbEntity
100
AcDbLine
  8
CADDY_2
 62
256
370
-1
  6
CONTINUOUS
 10
220.464111328125
 20
17.6772613525390589
 30
0.0
 11
220.5379333496094034
 21
17.6772613525390589
 31
0.0
  0
LINE
  5
4EB
100
AcDbEntity
100
AcDbLine
  8
CADDY_2
 62
256
370
-1
  6
CONTINUOUS
 10
220.8333129882811932
 20
17.6772613525390589
 30
0.0
 11
220.944091796875
 21
17.6772613525390589
 31
0.0
  0
LINE
  5
4EC
100
AcDbEntity
100
AcDbLine
  8
CADDY_2
 62
256
370
-1
  6
CONTINUOUS
 10
221.1656036376953125
 20
17.6772613525390589
 30
0.0
 11
221.2394866943359091
 21
17.6772613525390589
 31
0.0
  0
LINE
  5
4ED
100
AcDbEntity
100
AcDbLine
  8
CADDY_2
 62
256
370
-1
  6
CONTINUOUS
 10
221.6086883544921875
 20
17.6772613525390589
 30
0.0
 11
221.6825256347655966
 21
17.6772613525390589
 31
0.0
  0
LINE
  5
4EE
100
AcDbEntity
100
AcDbLine
  8
CADDY_2
 62
256
370
-1
  6
CONTINUOUS
 10
204.9569091796875
 20
17.7138366699218786
 30
0.0
 11
205.0307312011719034
 21
17.7138366699218786
 31
0.0
  0
LINE
  5
4EF
100
AcDbEntity
100
AcDbLine
  8
CADDY_2
 62
256
370
-1
  6
CONTINUOUS
 10
205.1415100097655966
 20
17.7138366699218786
 30
0.0
 11
205.21533203125
 21
17.7138366699218786
 31
0.0
  0
LINE
  5
4F0
100
AcDbEntity
100
AcDbLine
  8
CADDY_2
 62
256
370
-1
  6
CONTINUOUS
 10
205.6214904785155966
 20
17.7138366699218786
 30
0.0
 11
205.6953125
 21
17.7138366699218786
 31
0.0
  0
LINE
  5
4F1
100
AcDbEntity
100
AcDbLine
  8
CADDY_2
 62
256
370
-1
  6
CONTINUOUS
 10
206.2491607666015909
 20
17.7138366699218786
 30
0.0
 11
206.322998046875
 21
17.7138366699218786
 31
0.0
  0
LINE
  5
4F2
100
AcDbEntity
100
AcDbLine
  8
CADDY_2
 62
256
370
-1
  6
CONTINUOUS
 10
206.4337768554688068
 20
17.7138366699218786
 30
0.0
 11
206.5075988769530966
 21
17.7138366699218786
 31
0.0
  0
LINE
  5
4F3
100
AcDbEntity
100
AcDbLine
  8
CADDY_2
 62
256
370
-1
  6
CONTINUOUS
 10
206.9137420654296875
 20
17.7138366699218786
 30
0.0
 11
206.9875793457030966
 21
17.7138366699218786
 31
0.0
  0
LINE
  5
4F4
100
AcDbEntity
100
AcDbLine
  8
CADDY_2
 62
256
370
-1
  6
CONTINUOUS
 10
207.0983734130859091
 20
17.7138366699218786
 30
0.0
 11
207.2091369628905966
 21
17.7138366699218786
 31
0.0
  0
LINE
  5
4F5
100
AcDbEntity
100
AcDbLine
  8
CADDY_2
 62
256
370
-1
  6
CONTINUOUS
 10
207.7998657226561932
 20
17.7138366699218786
 30
0.0
 11
207.8737030029296875
 21
17.7138366699218786
 31
0.0
  0
LINE
  5
4F6
100
AcDbEntity
100
AcDbLine
  8
CADDY_2
 62
256
370
-1
  6
CONTINUOUS
 10
208.3906097412109091
 20
17.7138366699218786
 30
0.0
 11
208.4644775390625
 21
17.7138366699218786
 31
0.0
  0
LINE
  5
4F7
100
AcDbEntity
100
AcDbLine
  8
CADDY_2
 62
256
370
-1
  6
CONTINUOUS
 10
208.5752105712890909
 20
17.7138366699218786
 30
0.0
 11
208.6860046386719034
 21
17.7138366699218786
 31
0.0
  0
LINE
  5
4F8
100
AcDbEntity
100
AcDbLine
  8
CADDY_2
 62
256
370
-1
  6
CONTINUOUS
 10
208.9444732666015909
 20
17.7138366699218786
 30
0.0
 11
209.0552062988280966
 21
17.7138366699218786
 31
0.0
  0
LINE
  5
4F9
100
AcDbEntity
100
AcDbLine
  8
CADDY_2
 62
256
370
-1
  6
CONTINUOUS
 10
209.5351867675780966
 20
17.7138366699218786
 30
0.0
 11
209.6459808349609091
 21
17.7138366699218786
 31
0.0
  0
LINE
  5
4FA
100
AcDbEntity
100
AcDbLine
  8
CADDY_2
 62
256
370
-1
  6
CONTINUOUS
 10
209.8674774169921875
 20
17.7138366699218786
 30
0.0
 11
209.9044494628905966
 21
17.7138366699218786
 31
0.0
  0
LINE
  5
4FB
100
AcDbEntity
100
AcDbLine
  8
CADDY_2
 62
256
370
-1
  6
CONTINUOUS
 10
210.0151824951171875
 20
17.7138366699218786
 30
0.0
 11
210.1259460449219034
 21
17.7138366699218786
 31
0.0
  0
LINE
  5
4FC
100
AcDbEntity
100
AcDbLine
  8
CADDY_2
 62
256
370
-1
  6
CONTINUOUS
 10
210.1998138427734091
 20
17.7138366699218786
 30
0.0
 11
210.2736511230469034
 21
17.7138366699218786
 31
0.0
  0
LINE
  5
4FD
100
AcDbEntity
100
AcDbLine
  8
CADDY_2
 62
256
370
-1
  6
CONTINUOUS
 10
210.4213409423828125
 20
17.7138366699218786
 30
0.0
 11
210.4951477050780966
 21
17.7138366699218786
 31
0.0
  0
LINE
  5
4FE
100
AcDbEntity
100
AcDbLine
  8
CADDY_2
 62
256
370
-1
  6
CONTINUOUS
 10
210.8274536132811932
 20
17.7138366699218786
 30
0.0
 11
211.1597595214844034
 21
17.7138366699218786
 31
0.0
  0
LINE
  5
4FF
100
AcDbEntity
100
AcDbLine
  8
CADDY_2
 62
256
370
-1
  6
CONTINUOUS
 10
211.7135925292969034
 20
17.7138366699218786
 30
0.0
 11
211.8243713378905966
 21
17.7138366699218786
 31
0.0
  0
LINE
  5
500
100
AcDbEntity
100
AcDbLine
  8
CADDY_2
 62
256
370
-1
  6
CONTINUOUS
 10
212.0089721679688068
 20
17.7138366699218786
 30
0.0
 11
212.1197509765625
 21
17.7138366699218786
 31
0.0
  0
LINE
  5
501
100
AcDbEntity
100
AcDbLine
  8
CADDY_2
 62
256
370
-1
  6
CONTINUOUS
 10
212.8212432861328125
 20
17.7138366699218786
 30
0.0
 11
212.8950958251953125
 21
17.7138366699218786
 31
0.0
  0
LINE
  5
502
100
AcDbEntity
100
AcDbLine
  8
CADDY_2
 62
256
370
-1
  6
CONTINUOUS
 10
213.2643280029296875
 20
17.7138366699218786
 30
0.0
 11
213.3381652832030966
 21
17.7138366699218786
 31
0.0
  0
LINE
  5
503
100
AcDbEntity
100
AcDbLine
  8
CADDY_2
 62
256
370
-1
  6
CONTINUOUS
 10
213.6704559326171875
 20
17.7138366699218786
 30
0.0
 11
213.7443237304688068
 21
17.7138366699218786
 31
0.0
  0
LINE
  5
504
100
AcDbEntity
100
AcDbLine
  8
CADDY_2
 62
256
370
-1
  6
CONTINUOUS
 10
214.0396881103515909
 20
17.7138366699218786
 30
0.0
 11
214.0766143798828125
 21
17.7138366699218786
 31
0.0
  0
LINE
  5
505
100
AcDbEntity
100
AcDbLine
  8
CADDY_2
 62
256
370
-1
  6
CONTINUOUS
 10
214.2981262207030966
 20
17.7138366699218786
 30
0.0
 11
214.4088897705078125
 21
17.7138366699218786
 31
0.0
  0
LINE
  5
506
100
AcDbEntity
100
AcDbLine
  8
CADDY_2
 62
256
370
-1
  6
CONTINUOUS
 10
214.5196838378905966
 20
17.7138366699218786
 30
0.0
 11
214.5565948486328125
 21
17.7138366699218786
 31
0.0
  0
LINE
  5
507
100
AcDbEntity
100
AcDbLine
  8
CADDY_2
 62
256
370
-1
  6
CONTINUOUS
 10
214.8519744873046875
 20
17.7138366699218786
 30
0.0
 11
214.9257965087890909
 21
17.7138366699218786
 31
0.0
  0
LINE
  5
508
100
AcDbEntity
100
AcDbLine
  8
CADDY_2
 62
256
370
-1
  6
CONTINUOUS
 10
215.0365905761719034
 20
17.7138366699218786
 30
0.0
 11
215.1103973388671875
 21
17.7138366699218786
 31
0.0
  0
LINE
  5
509
100
AcDbEntity
100
AcDbLine
  8
CADDY_2
 62
256
370
-1
  6
CONTINUOUS
 10
215.4796600341796875
 20
17.7138366699218786
 30
0.0
 11
215.5165710449219034
 21
17.7138366699218786
 31
0.0
  0
LINE
  5
50A
100
AcDbEntity
100
AcDbLine
  8
CADDY_2
 62
256
370
-1
  6
CONTINUOUS
 10
215.7380828857421875
 20
17.7138366699218786
 30
0.0
 11
215.8488616943359091
 21
17.7138366699218786
 31
0.0
  0
LINE
  5
50B
100
AcDbEntity
100
AcDbLine
  8
CADDY_2
 62
256
370
-1
  6
CONTINUOUS
 10
215.9596405029296875
 20
17.7138366699218786
 30
0.0
 11
215.9965667724609091
 21
17.7138366699218786
 31
0.0
  0
LINE
  5
50C
100
AcDbEntity
100
AcDbLine
  8
CADDY_2
 62
256
370
-1
  6
CONTINUOUS
 10
216.2919311523438068
 20
17.7138366699218786
 30
0.0
 11
216.3657684326171875
 21
17.7138366699218786
 31
0.0
  0
LINE
  5
50D
100
AcDbEntity
100
AcDbLine
  8
CADDY_2
 62
256
370
-1
  6
CONTINUOUS
 10
216.6242370605469034
 20
17.7138366699218786
 30
0.0
 11
216.7349853515625
 21
17.7138366699218786
 31
0.0
  0
LINE
  5
50E
100
AcDbEntity
100
AcDbLine
  8
CADDY_2
 62
256
370
-1
  6
CONTINUOUS
 10
216.9934387207030966
 20
17.7138366699218786
 30
0.0
 11
217.3257293701171875
 21
17.7138366699218786
 31
0.0
  0
LINE
  5
50F
100
AcDbEntity
100
AcDbLine
  8
CADDY_2
 62
256
370
-1
  6
CONTINUOUS
 10
217.7318725585938068
 20
17.7138366699218786
 30
0.0
 11
217.8057098388671875
 21
17.7138366699218786
 31
0.0
  0
LINE
  5
510
100
AcDbEntity
100
AcDbLine
  8
CADDY_2
 62
256
370
-1
  6
CONTINUOUS
 10
218.1749114990234091
 20
17.7138366699218786
 30
0.0
 11
218.2118682861328125
 21
17.7138366699218786
 31
0.0
  0
LINE
  5
511
100
AcDbEntity
100
AcDbLine
  8
CADDY_2
 62
256
370
-1
  6
CONTINUOUS
 10
218.6918487548828125
 20
17.7138366699218786
 30
0.0
 11
218.8026123046875
 21
17.7138366699218786
 31
0.0
  0
LINE
  5
512
100
AcDbEntity
100
AcDbLine
  8
CADDY_2
 62
256
370
-1
  6
CONTINUOUS
 10
219.5410461425780966
 20
17.7138366699218786
 30
0.0
 11
219.5779571533203125
 21
17.7138366699218786
 31
0.0
  0
LINE
  5
513
100
AcDbEntity
100
AcDbLine
  8
CADDY_2
 62
256
370
-1
  6
CONTINUOUS
 10
219.6887359619140909
 20
17.7138366699218786
 30
0.0
 11
219.7994995117188068
 21
17.7138366699218786
 31
0.0
  0
LINE
  5
514
100
AcDbEntity
100
AcDbLine
  8
CADDY_2
 62
256
370
-1
  6
CONTINUOUS
 10
219.8733367919921875
 20
17.7138366699218786
 30
0.0
 11
219.9472045898438068
 21
17.7138366699218786
 31
0.0
  0
LINE
  5
515
100
AcDbEntity
100
AcDbLine
  8
CADDY_2
 62
256
370
-1
  6
CONTINUOUS
 10
220.0949096679688068
 20
17.7138366699218786
 30
0.0
 11
220.1687164306640909
 21
17.7138366699218786
 31
0.0
  0
LINE
  5
516
100
AcDbEntity
100
AcDbLine
  8
CADDY_2
 62
256
370
-1
  6
CONTINUOUS
 10
220.5010223388671875
 20
17.7138366699218786
 30
0.0
 11
220.5748596191405966
 21
17.7138366699218786
 31
0.0
  0
LINE
  5
517
100
AcDbEntity
100
AcDbLine
  8
CADDY_2
 62
256
370
-1
  6
CONTINUOUS
 10
220.8333129882811932
 20
17.7138366699218786
 30
0.0
 11
220.944091796875
 21
17.7138366699218786
 31
0.0
  0
LINE
  5
518
100
AcDbEntity
100
AcDbLine
  8
CADDY_2
 62
256
370
-1
  6
CONTINUOUS
 10
221.2025146484375
 20
17.7138366699218786
 30
0.0
 11
221.2763824462890909
 21
17.7138366699218786
 31
0.0
  0
LINE
  5
519
100
AcDbEntity
100
AcDbLine
  8
CADDY_2
 62
256
370
-1
  6
CONTINUOUS
 10
221.6455841064453125
 20
17.7138366699218786
 30
0.0
 11
221.7194519042969034
 21
17.7138366699218786
 31
0.0
  0
LINE
  5
51A
100
AcDbEntity
100
AcDbLine
  8
CADDY_2
 62
256
370
-1
  6
CONTINUOUS
 10
204.9569091796875
 20
17.75042724609375
 30
0.0
 11
205.0307312011719034
 21
17.75042724609375
 31
0.0
  0
LINE
  5
51B
100
AcDbEntity
100
AcDbLine
  8
CADDY_2
 62
256
370
-1
  6
CONTINUOUS
 10
205.1415100097655966
 20
17.75042724609375
 30
0.0
 11
205.21533203125
 21
17.75042724609375
 31
0.0
  0
LINE
  5
51C
100
AcDbEntity
100
AcDbLine
  8
CADDY_2
 62
256
370
-1
  6
CONTINUOUS
 10
205.6214904785155966
 20
17.75042724609375
 30
0.0
 11
205.6953125
 21
17.75042724609375
 31
0.0
  0
LINE
  5
51D
100
AcDbEntity
100
AcDbLine
  8
CADDY_2
 62
256
370
-1
  6
CONTINUOUS
 10
206.2491607666015909
 20
17.75042724609375
 30
0.0
 11
206.322998046875
 21
17.75042724609375
 31
0.0
  0
LINE
  5
51E
100
AcDbEntity
100
AcDbLine
  8
CADDY_2
 62
256
370
-1
  6
CONTINUOUS
 10
206.4337768554688068
 20
17.75042724609375
 30
0.0
 11
206.5075988769530966
 21
17.75042724609375
 31
0.0
  0
LINE
  5
51F
100
AcDbEntity
100
AcDbLine
  8
CADDY_2
 62
256
370
-1
  6
CONTINUOUS
 10
206.9137420654296875
 20
17.75042724609375
 30
0.0
 11
207.2091369628905966
 21
17.75042724609375
 31
0.0
  0
LINE
  5
520
100
AcDbEntity
100
AcDbLine
  8
CADDY_2
 62
256
370
-1
  6
CONTINUOUS
 10
207.7998657226561932
 20
17.75042724609375
 30
0.0
 11
207.8737030029296875
 21
17.75042724609375
 31
0.0
  0
LINE
  5
521
100
AcDbEntity
100
AcDbLine
  8
CADDY_2
 62
256
370
-1
  6
CONTINUOUS
 10
208.3906097412109091
 20
17.75042724609375
 30
0.0
 11
208.4644775390625
 21
17.75042724609375
 31
0.0
  0
LINE
  5
522
100
AcDbEntity
100
AcDbLine
  8
CADDY_2
 62
256
370
-1
  6
CONTINUOUS
 10
208.5382995605469034
 20
17.75042724609375
 30
0.0
 11
208.722900390625
 21
17.75042724609375
 31
0.0
  0
LINE
  5
523
100
AcDbEntity
100
AcDbLine
  8
CADDY_2
 62
256
370
-1
  6
CONTINUOUS
 10
208.9444732666015909
 20
17.75042724609375
 30
0.0
 11
209.0552062988280966
 21
17.75042724609375
 31
0.0
  0
LINE
  5
524
100
AcDbEntity
100
AcDbLine
  8
CADDY_2
 62
256
370
-1
  6
CONTINUOUS
 10
209.5721435546875
 20
17.75042724609375
 30
0.0
 11
209.6828765869140909
 21
17.75042724609375
 31
0.0
  0
LINE
  5
525
100
AcDbEntity
100
AcDbLine
  8
CADDY_2
 62
256
370
-1
  6
CONTINUOUS
 10
209.8674774169921875
 20
17.75042724609375
 30
0.0
 11
209.9044494628905966
 21
17.75042724609375
 31
0.0
  0
LINE
  5
526
100
AcDbEntity
100
AcDbLine
  8
CADDY_2
 62
256
370
-1
  6
CONTINUOUS
 10
210.0151824951171875
 20
17.75042724609375
 30
0.0
 11
210.1259460449219034
 21
17.75042724609375
 31
0.0
  0
LINE
  5
527
100
AcDbEntity
100
AcDbLine
  8
CADDY_2
 62
256
370
-1
  6
CONTINUOUS
 10
210.2367401123046875
 20
17.75042724609375
 30
0.0
 11
210.310546875
 21
17.75042724609375
 31
0.0
  0
LINE
  5
528
100
AcDbEntity
100
AcDbLine
  8
CADDY_2
 62
256
370
-1
  6
CONTINUOUS
 10
210.4213409423828125
 20
17.75042724609375
 30
0.0
 11
210.4951477050780966
 21
17.75042724609375
 31
0.0
  0
LINE
  5
529
100
AcDbEntity
100
AcDbLine
  8
CADDY_2
 62
256
370
-1
  6
CONTINUOUS
 10
210.8643951416015909
 20
17.75042724609375
 30
0.0
 11
210.9013214111328125
 21
17.75042724609375
 31
0.0
  0
LINE
  5
52A
100
AcDbEntity
100
AcDbLine
  8
CADDY_2
 62
256
370
-1
  6
CONTINUOUS
 10
211.0859222412109091
 20
17.75042724609375
 30
0.0
 11
211.1597595214844034
 21
17.75042724609375
 31
0.0
  0
LINE
  5
52B
100
AcDbEntity
100
AcDbLine
  8
CADDY_2
 62
256
370
-1
  6
CONTINUOUS
 10
211.6397705078125
 20
17.75042724609375
 30
0.0
 11
211.8243713378905966
 21
17.75042724609375
 31
0.0
  0
LINE
  5
52C
100
AcDbEntity
100
AcDbLine
  8
CADDY_2
 62
256
370
-1
  6
CONTINUOUS
 10
212.0089721679688068
 20
17.75042724609375
 30
0.0
 11
212.1197509765625
 21
17.75042724609375
 31
0.0
  0
LINE
  5
52D
100
AcDbEntity
100
AcDbLine
  8
CADDY_2
 62
256
370
-1
  6
CONTINUOUS
 10
212.8212432861328125
 20
17.75042724609375
 30
0.0
 11
212.8950958251953125
 21
17.75042724609375
 31
0.0
  0
LINE
  5
52E
100
AcDbEntity
100
AcDbLine
  8
CADDY_2
 62
256
370
-1
  6
CONTINUOUS
 10
213.2643280029296875
 20
17.75042724609375
 30
0.0
 11
213.3381652832030966
 21
17.75042724609375
 31
0.0
  0
LINE
  5
52F
100
AcDbEntity
100
AcDbLine
  8
CADDY_2
 62
256
370
-1
  6
CONTINUOUS
 10
213.6704559326171875
 20
17.75042724609375
 30
0.0
 11
213.7443237304688068
 21
17.75042724609375
 31
0.0
  0
LINE
  5
530
100
AcDbEntity
100
AcDbLine
  8
CADDY_2
 62
256
370
-1
  6
CONTINUOUS
 10
214.0396881103515909
 20
17.75042724609375
 30
0.0
 11
214.0766143798828125
 21
17.75042724609375
 31
0.0
  0
LINE
  5
531
100
AcDbEntity
100
AcDbLine
  8
CADDY_2
 62
256
370
-1
  6
CONTINUOUS
 10
214.2612152099609091
 20
17.75042724609375
 30
0.0
 11
214.4088897705078125
 21
17.75042724609375
 31
0.0
  0
LINE
  5
532
100
AcDbEntity
100
AcDbLine
  8
CADDY_2
 62
256
370
-1
  6
CONTINUOUS
 10
214.5196838378905966
 20
17.75042724609375
 30
0.0
 11
214.5565948486328125
 21
17.75042724609375
 31
0.0
  0
LINE
  5
533
100
AcDbEntity
100
AcDbLine
  8
CADDY_2
 62
256
370
-1
  6
CONTINUOUS
 10
214.8519744873046875
 20
17.75042724609375
 30
0.0
 11
214.9257965087890909
 21
17.75042724609375
 31
0.0
  0
LINE
  5
534
100
AcDbEntity
100
AcDbLine
  8
CADDY_2
 62
256
370
-1
  6
CONTINUOUS
 10
215.0365905761719034
 20
17.75042724609375
 30
0.0
 11
215.1103973388671875
 21
17.75042724609375
 31
0.0
  0
LINE
  5
535
100
AcDbEntity
100
AcDbLine
  8
CADDY_2
 62
256
370
-1
  6
CONTINUOUS
 10
215.4796600341796875
 20
17.75042724609375
 30
0.0
 11
215.5165710449219034
 21
17.75042724609375
 31
0.0
  0
LINE
  5
536
100
AcDbEntity
100
AcDbLine
  8
CADDY_2
 62
256
370
-1
  6
CONTINUOUS
 10
215.701171875
 20
17.75042724609375
 30
0.0
 11
215.8488616943359091
 21
17.75042724609375
 31
0.0
  0
LINE
  5
537
100
AcDbEntity
100
AcDbLine
  8
CADDY_2
 62
256
370
-1
  6
CONTINUOUS
 10
215.9596405029296875
 20
17.75042724609375
 30
0.0
 11
215.9965667724609091
 21
17.75042724609375
 31
0.0
  0
LINE
  5
538
100
AcDbEntity
100
AcDbLine
  8
CADDY_2
 62
256
370
-1
  6
CONTINUOUS
 10
216.2919311523438068
 20
17.75042724609375
 30
0.0
 11
216.3657684326171875
 21
17.75042724609375
 31
0.0
  0
LINE
  5
539
100
AcDbEntity
100
AcDbLine
  8
CADDY_2
 62
256
370
-1
  6
CONTINUOUS
 10
216.5872802734375
 20
17.75042724609375
 30
0.0
 11
216.7349853515625
 21
17.75042724609375
 31
0.0
  0
LINE
  5
53A
100
AcDbEntity
100
AcDbLine
  8
CADDY_2
 62
256
370
-1
  6
CONTINUOUS
 10
217.0303344726561932
 20
17.75042724609375
 30
0.0
 11
217.0672912597655966
 21
17.75042724609375
 31
0.0
  0
LINE
  5
53B
100
AcDbEntity
100
AcDbLine
  8
CADDY_2
 62
256
370
-1
  6
CONTINUOUS
 10
217.2518920898438068
 20
17.75042724609375
 30
0.0
 11
217.3257293701171875
 21
17.75042724609375
 31
0.0
  0
LINE
  5
53C
100
AcDbEntity
100
AcDbLine
  8
CADDY_2
 62
256
370
-1
  6
CONTINUOUS
 10
217.7318725585938068
 20
17.75042724609375
 30
0.0
 11
217.8057098388671875
 21
17.75042724609375
 31
0.0
  0
LINE
  5
53D
100
AcDbEntity
100
AcDbLine
  8
CADDY_2
 62
256
370
-1
  6
CONTINUOUS
 10
218.1749114990234091
 20
17.75042724609375
 30
0.0
 11
218.2118682861328125
 21
17.75042724609375
 31
0.0
  0
LINE
  5
53E
100
AcDbEntity
100
AcDbLine
  8
CADDY_2
 62
256
370
-1
  6
CONTINUOUS
 10
218.6918487548828125
 20
17.75042724609375
 30
0.0
 11
218.8026123046875
 21
17.75042724609375
 31
0.0
  0
LINE
  5
53F
100
AcDbEntity
100
AcDbLine
  8
CADDY_2
 62
256
370
-1
  6
CONTINUOUS
 10
219.5410461425780966
 20
17.75042724609375
 30
0.0
 11
219.5779571533203125
 21
17.75042724609375
 31
0.0
  0
LINE
  5
540
100
AcDbEntity
100
AcDbLine
  8
CADDY_2
 62
256
370
-1
  6
CONTINUOUS
 10
219.6887359619140909
 20
17.75042724609375
 30
0.0
 11
219.7994995117188068
 21
17.75042724609375
 31
0.0
  0
LINE
  5
541
100
AcDbEntity
100
AcDbLine
  8
CADDY_2
 62
256
370
-1
  6
CONTINUOUS
 10
219.9102478027344034
 20
17.75042724609375
 30
0.0
 11
219.9841156005859091
 21
17.75042724609375
 31
0.0
  0
LINE
  5
542
100
AcDbEntity
100
AcDbLine
  8
CADDY_2
 62
256
370
-1
  6
CONTINUOUS
 10
220.0949096679688068
 20
17.75042724609375
 30
0.0
 11
220.1687164306640909
 21
17.75042724609375
 31
0.0
  0
LINE
  5
543
100
AcDbEntity
100
AcDbLine
  8
CADDY_2
 62
256
370
-1
  6
CONTINUOUS
 10
220.5010223388671875
 20
17.75042724609375
 30
0.0
 11
220.5748596191405966
 21
17.75042724609375
 31
0.0
  0
LINE
  5
544
100
AcDbEntity
100
AcDbLine
  8
CADDY_2
 62
256
370
-1
  6
CONTINUOUS
 10
220.7964019775390909
 20
17.75042724609375
 30
0.0
 11
220.944091796875
 21
17.75042724609375
 31
0.0
  0
LINE
  5
545
100
AcDbEntity
100
AcDbLine
  8
CADDY_2
 62
256
370
-1
  6
CONTINUOUS
 10
221.2025146484375
 20
17.75042724609375
 30
0.0
 11
221.2763824462890909
 21
17.75042724609375
 31
0.0
  0
LINE
  5
546
100
AcDbEntity
100
AcDbLine
  8
CADDY_2
 62
256
370
-1
  6
CONTINUOUS
 10
221.6455841064453125
 20
17.75042724609375
 30
0.0
 11
221.7194519042969034
 21
17.75042724609375
 31
0.0
  0
LINE
  5
547
100
AcDbEntity
100
AcDbLine
  8
CADDY_2
 62
256
370
-1
  6
CONTINUOUS
 10
204.9569091796875
 20
17.7870025634765589
 30
0.0
 11
205.21533203125
 21
17.7870025634765589
 31
0.0
  0
LINE
  5
548
100
AcDbEntity
100
AcDbLine
  8
CADDY_2
 62
256
370
-1
  6
CONTINUOUS
 10
205.6214904785155966
 20
17.7870025634765589
 30
0.0
 11
205.6953125
 21
17.7870025634765589
 31
0.0
  0
LINE
  5
549
100
AcDbEntity
100
AcDbLine
  8
CADDY_2
 62
256
370
-1
  6
CONTINUOUS
 10
206.2491607666015909
 20
17.7870025634765589
 30
0.0
 11
206.5075988769530966
 21
17.7870025634765589
 31
0.0
  0
LINE
  5
54A
100
AcDbEntity
100
AcDbLine
  8
CADDY_2
 62
256
370
-1
  6
CONTINUOUS
 10
206.9137420654296875
 20
17.7870025634765589
 30
0.0
 11
207.1722106933594034
 21
17.7870025634765589
 31
0.0
  0
LINE
  5
54B
100
AcDbEntity
100
AcDbLine
  8
CADDY_2
 62
256
370
-1
  6
CONTINUOUS
 10
207.7998657226561932
 20
17.7870025634765589
 30
0.0
 11
207.8737030029296875
 21
17.7870025634765589
 31
0.0
  0
LINE
  5
54C
100
AcDbEntity
100
AcDbLine
  8
CADDY_2
 62
256
370
-1
  6
CONTINUOUS
 10
208.3906097412109091
 20
17.7870025634765589
 30
0.0
 11
208.6860046386719034
 21
17.7870025634765589
 31
0.0
  0
LINE
  5
54D
100
AcDbEntity
100
AcDbLine
  8
CADDY_2
 62
256
370
-1
  6
CONTINUOUS
 10
208.9444732666015909
 20
17.7870025634765589
 30
0.0
 11
209.0552062988280966
 21
17.7870025634765589
 31
0.0
  0
LINE
  5
54E
100
AcDbEntity
100
AcDbLine
  8
CADDY_2
 62
256
370
-1
  6
CONTINUOUS
 10
209.5721435546875
 20
17.7870025634765589
 30
0.0
 11
209.6828765869140909
 21
17.7870025634765589
 31
0.0
  0
LINE
  5
54F
100
AcDbEntity
100
AcDbLine
  8
CADDY_2
 62
256
370
-1
  6
CONTINUOUS
 10
209.8674774169921875
 20
17.7870025634765589
 30
0.0
 11
209.9044494628905966
 21
17.7870025634765589
 31
0.0
  0
LINE
  5
550
100
AcDbEntity
100
AcDbLine
  8
CADDY_2
 62
256
370
-1
  6
CONTINUOUS
 10
210.0151824951171875
 20
17.7870025634765589
 30
0.0
 11
210.1259460449219034
 21
17.7870025634765589
 31
0.0
  0
LINE
  5
551
100
AcDbEntity
100
AcDbLine
  8
CADDY_2
 62
256
370
-1
  6
CONTINUOUS
 10
210.2736511230469034
 20
17.7870025634765589
 30
0.0
 11
210.3474731445311932
 21
17.7870025634765589
 31
0.0
  0
LINE
  5
552
100
AcDbEntity
100
AcDbLine
  8
CADDY_2
 62
256
370
-1
  6
CONTINUOUS
 10
210.4213409423828125
 20
17.7870025634765589
 30
0.0
 11
210.4951477050780966
 21
17.7870025634765589
 31
0.0
  0
LINE
  5
553
100
AcDbEntity
100
AcDbLine
  8
CADDY_2
 62
256
370
-1
  6
CONTINUOUS
 10
210.8643951416015909
 20
17.7870025634765589
 30
0.0
 11
210.9382476806640909
 21
17.7870025634765589
 31
0.0
  0
LINE
  5
554
100
AcDbEntity
100
AcDbLine
  8
CADDY_2
 62
256
370
-1
  6
CONTINUOUS
 10
211.0859222412109091
 20
17.7870025634765589
 30
0.0
 11
211.1597595214844034
 21
17.7870025634765589
 31
0.0
  0
LINE
  5
555
100
AcDbEntity
100
AcDbLine
  8
CADDY_2
 62
256
370
-1
  6
CONTINUOUS
 10
211.6028137207030966
 20
17.7870025634765589
 30
0.0
 11
211.7874145507811932
 21
17.7870025634765589
 31
0.0
  0
LINE
  5
556
100
AcDbEntity
100
AcDbLine
  8
CADDY_2
 62
256
370
-1
  6
CONTINUOUS
 10
212.0089721679688068
 20
17.7870025634765589
 30
0.0
 11
212.1197509765625
 21
17.7870025634765589
 31
0.0
  0
LINE
  5
557
100
AcDbEntity
100
AcDbLine
  8
CADDY_2
 62
256
370
-1
  6
CONTINUOUS
 10
212.8212432861328125
 20
17.7870025634765589
 30
0.0
 11
213.3381652832030966
 21
17.7870025634765589
 31
0.0
  0
LINE
  5
558
100
AcDbEntity
100
AcDbLine
  8
CADDY_2
 62
256
370
-1
  6
CONTINUOUS
 10
213.6704559326171875
 20
17.7870025634765589
 30
0.0
 11
213.7443237304688068
 21
17.7870025634765589
 31
0.0
  0
LINE
  5
559
100
AcDbEntity
100
AcDbLine
  8
CADDY_2
 62
256
370
-1
  6
CONTINUOUS
 10
214.0396881103515909
 20
17.7870025634765589
 30
0.0
 11
214.0766143798828125
 21
17.7870025634765589
 31
0.0
  0
LINE
  5
55A
100
AcDbEntity
100
AcDbLine
  8
CADDY_2
 62
256
370
-1
  6
CONTINUOUS
 10
214.2612152099609091
 20
17.7870025634765589
 30
0.0
 11
214.3719940185546875
 21
17.7870025634765589
 31
0.0
  0
LINE
  5
55B
100
AcDbEntity
100
AcDbLine
  8
CADDY_2
 62
256
370
-1
  6
CONTINUOUS
 10
214.5196838378905966
 20
17.7870025634765589
 30
0.0
 11
214.5565948486328125
 21
17.7870025634765589
 31
0.0
  0
LINE
  5
55C
100
AcDbEntity
100
AcDbLine
  8
CADDY_2
 62
256
370
-1
  6
CONTINUOUS
 10
214.8519744873046875
 20
17.7870025634765589
 30
0.0
 11
215.1103973388671875
 21
17.7870025634765589
 31
0.0
  0
LINE
  5
55D
100
AcDbEntity
100
AcDbLine
  8
CADDY_2
 62
256
370
-1
  6
CONTINUOUS
 10
215.4796600341796875
 20
17.7870025634765589
 30
0.0
 11
215.5165710449219034
 21
17.7870025634765589
 31
0.0
  0
LINE
  5
55E
100
AcDbEntity
100
AcDbLine
  8
CADDY_2
 62
256
370
-1
  6
CONTINUOUS
 10
215.701171875
 20
17.7870025634765589
 30
0.0
 11
215.8119506835938068
 21
17.7870025634765589
 31
0.0
  0
LINE
  5
55F
100
AcDbEntity
100
AcDbLine
  8
CADDY_2
 62
256
370
-1
  6
CONTINUOUS
 10
215.9596405029296875
 20
17.7870025634765589
 30
0.0
 11
215.9965667724609091
 21
17.7870025634765589
 31
0.0
  0
LINE
  5
560
100
AcDbEntity
100
AcDbLine
  8
CADDY_2
 62
256
370
-1
  6
CONTINUOUS
 10
216.2919311523438068
 20
17.7870025634765589
 30
0.0
 11
216.6980590820311932
 21
17.7870025634765589
 31
0.0
  0
LINE
  5
561
100
AcDbEntity
100
AcDbLine
  8
CADDY_2
 62
256
370
-1
  6
CONTINUOUS
 10
217.0303344726561932
 20
17.7870025634765589
 30
0.0
 11
217.1042022705078125
 21
17.7870025634765589
 31
0.0
  0
LINE
  5
562
100
AcDbEntity
100
AcDbLine
  8
CADDY_2
 62
256
370
-1
  6
CONTINUOUS
 10
217.2518920898438068
 20
17.7870025634765589
 30
0.0
 11
217.3257293701171875
 21
17.7870025634765589
 31
0.0
  0
LINE
  5
563
100
AcDbEntity
100
AcDbLine
  8
CADDY_2
 62
256
370
-1
  6
CONTINUOUS
 10
217.7318725585938068
 20
17.7870025634765589
 30
0.0
 11
217.8057098388671875
 21
17.7870025634765589
 31
0.0
  0
LINE
  5
564
100
AcDbEntity
100
AcDbLine
  8
CADDY_2
 62
256
370
-1
  6
CONTINUOUS
 10
218.1749114990234091
 20
17.7870025634765589
 30
0.0
 11
218.2118682861328125
 21
17.7870025634765589
 31
0.0
  0
LINE
  5
565
100
AcDbEntity
100
AcDbLine
  8
CADDY_2
 62
256
370
-1
  6
CONTINUOUS
 10
218.6918487548828125
 20
17.7870025634765589
 30
0.0
 11
218.8026123046875
 21
17.7870025634765589
 31
0.0
  0
LINE
  5
566
100
AcDbEntity
100
AcDbLine
  8
CADDY_2
 62
256
370
-1
  6
CONTINUOUS
 10
219.5410461425780966
 20
17.7870025634765589
 30
0.0
 11
219.5779571533203125
 21
17.7870025634765589
 31
0.0
  0
LINE
  5
567
100
AcDbEntity
100
AcDbLine
  8
CADDY_2
 62
256
370
-1
  6
CONTINUOUS
 10
219.6887359619140909
 20
17.7870025634765589
 30
0.0
 11
219.7994995117188068
 21
17.7870025634765589
 31
0.0
  0
LINE
  5
568
100
AcDbEntity
100
AcDbLine
  8
CADDY_2
 62
256
370
-1
  6
CONTINUOUS
 10
219.9472045898438068
 20
17.7870025634765589
 30
0.0
 11
220.0210266113280966
 21
17.7870025634765589
 31
0.0
  0
LINE
  5
569
100
AcDbEntity
100
AcDbLine
  8
CADDY_2
 62
256
370
-1
  6
CONTINUOUS
 10
220.0949096679688068
 20
17.7870025634765589
 30
0.0
 11
220.1687164306640909
 21
17.7870025634765589
 31
0.0
  0
LINE
  5
56A
100
AcDbEntity
100
AcDbLine
  8
CADDY_2
 62
256
370
-1
  6
CONTINUOUS
 10
220.5010223388671875
 20
17.7870025634765589
 30
0.0
 11
220.9071807861328125
 21
17.7870025634765589
 31
0.0
  0
LINE
  5
56B
100
AcDbEntity
100
AcDbLine
  8
CADDY_2
 62
256
370
-1
  6
CONTINUOUS
 10
221.2025146484375
 20
17.7870025634765589
 30
0.0
 11
221.7194519042969034
 21
17.7870025634765589
 31
0.0
  0
LINE
  5
56C
100
AcDbEntity
100
AcDbLine
  8
CADDY_2
 62
256
370
-1
  6
CONTINUOUS
 10
204.9938049316405966
 20
17.8235778808593786
 30
0.0
 11
205.067626953125
 21
17.8235778808593786
 31
0.0
  0
LINE
  5
56D
100
AcDbEntity
100
AcDbLine
  8
CADDY_2
 62
256
370
-1
  6
CONTINUOUS
 10
205.1784210205078125
 20
17.8235778808593786
 30
0.0
 11
205.2522277832030966
 21
17.8235778808593786
 31
0.0
  0
LINE
  5
56E
100
AcDbEntity
100
AcDbLine
  8
CADDY_2
 62
256
370
-1
  6
CONTINUOUS
 10
205.6584014892578125
 20
17.8235778808593786
 30
0.0
 11
205.7322540283203125
 21
17.8235778808593786
 31
0.0
  0
LINE
  5
56F
100
AcDbEntity
100
AcDbLine
  8
CADDY_2
 62
256
370
-1
  6
CONTINUOUS
 10
206.2860870361328125
 20
17.8235778808593786
 30
0.0
 11
206.3598937988280966
 21
17.8235778808593786
 31
0.0
  0
LINE
  5
570
100
AcDbEntity
100
AcDbLine
  8
CADDY_2
 62
256
370
-1
  6
CONTINUOUS
 10
206.4706878662109091
 20
17.8235778808593786
 30
0.0
 11
206.5445404052734091
 21
17.8235778808593786
 31
0.0
  0
LINE
  5
571
100
AcDbEntity
100
AcDbLine
  8
CADDY_2
 62
256
370
-1
  6
CONTINUOUS
 10
206.9506683349609091
 20
17.8235778808593786
 30
0.0
 11
207.1722106933594034
 21
17.8235778808593786
 31
0.0
  0
LINE
  5
572
100
AcDbEntity
100
AcDbLine
  8
CADDY_2
 62
256
370
-1
  6
CONTINUOUS
 10
207.8368072509765909
 20
17.8235778808593786
 30
0.0
 11
207.9106292724609091
 21
17.8235778808593786
 31
0.0
  0
LINE
  5
573
100
AcDbEntity
100
AcDbLine
  8
CADDY_2
 62
256
370
-1
  6
CONTINUOUS
 10
208.4275360107421875
 20
17.8235778808593786
 30
0.0
 11
208.5014038085938068
 21
17.8235778808593786
 31
0.0
  0
LINE
  5
574
100
AcDbEntity
100
AcDbLine
  8
CADDY_2
 62
256
370
-1
  6
CONTINUOUS
 10
208.6490783691405966
 20
17.8235778808593786
 30
0.0
 11
208.7598724365234091
 21
17.8235778808593786
 31
0.0
  0
LINE
  5
575
100
AcDbEntity
100
AcDbLine
  8
CADDY_2
 62
256
370
-1
  6
CONTINUOUS
 10
208.9813690185546875
 20
17.8235778808593786
 30
0.0
 11
209.0921630859375
 21
17.8235778808593786
 31
0.0
  0
LINE
  5
576
100
AcDbEntity
100
AcDbLine
  8
CADDY_2
 62
256
370
-1
  6
CONTINUOUS
 10
209.5721435546875
 20
17.8235778808593786
 30
0.0
 11
209.6828765869140909
 21
17.8235778808593786
 31
0.0
  0
LINE
  5
577
100
AcDbEntity
100
AcDbLine
  8
CADDY_2
 62
256
370
-1
  6
CONTINUOUS
 10
209.9044494628905966
 20
17.8235778808593786
 30
0.0
 11
209.9413452148438068
 21
17.8235778808593786
 31
0.0
  0
LINE
  5
578
100
AcDbEntity
100
AcDbLine
  8
CADDY_2
 62
256
370
-1
  6
CONTINUOUS
 10
210.0151824951171875
 20
17.8235778808593786
 30
0.0
 11
210.1259460449219034
 21
17.8235778808593786
 31
0.0
  0
LINE
  5
579
100
AcDbEntity
100
AcDbLine
  8
CADDY_2
 62
256
370
-1
  6
CONTINUOUS
 10
210.310546875
 20
17.8235778808593786
 30
0.0
 11
210.3474731445311932
 21
17.8235778808593786
 31
0.0
  0
LINE
  5
57A
100
AcDbEntity
100
AcDbLine
  8
CADDY_2
 62
256
370
-1
  6
CONTINUOUS
 10
210.458251953125
 20
17.8235778808593786
 30
0.0
 11
210.5321044921875
 21
17.8235778808593786
 31
0.0
  0
LINE
  5
57B
100
AcDbEntity
100
AcDbLine
  8
CADDY_2
 62
256
370
-1
  6
CONTINUOUS
 10
210.9013214111328125
 20
17.8235778808593786
 30
0.0
 11
210.9382476806640909
 21
17.8235778808593786
 31
0.0
  0
LINE
  5
57C
100
AcDbEntity
100
AcDbLine
  8
CADDY_2
 62
256
370
-1
  6
CONTINUOUS
 10
211.0859222412109091
 20
17.8235778808593786
 30
0.0
 11
211.1597595214844034
 21
17.8235778808593786
 31
0.0
  0
LINE
  5
57D
100
AcDbEntity
100
AcDbLine
  8
CADDY_2
 62
256
370
-1
  6
CONTINUOUS
 10
211.56591796875
 20
17.8235778808593786
 30
0.0
 11
211.7505187988280966
 21
17.8235778808593786
 31
0.0
  0
LINE
  5
57E
100
AcDbEntity
100
AcDbLine
  8
CADDY_2
 62
256
370
-1
  6
CONTINUOUS
 10
212.0458984375
 20
17.8235778808593786
 30
0.0
 11
212.1566772460938068
 21
17.8235778808593786
 31
0.0
  0
LINE
  5
57F
100
AcDbEntity
100
AcDbLine
  8
CADDY_2
 62
256
370
-1
  6
CONTINUOUS
 10
212.8581848144530966
 20
17.8235778808593786
 30
0.0
 11
212.9320220947265909
 21
17.8235778808593786
 31
0.0
  0
LINE
  5
580
100
AcDbEntity
100
AcDbLine
  8
CADDY_2
 62
256
370
-1
  6
CONTINUOUS
 10
213.3012390136719034
 20
17.8235778808593786
 30
0.0
 11
213.3750762939453125
 21
17.8235778808593786
 31
0.0
  0
LINE
  5
581
100
AcDbEntity
100
AcDbLine
  8
CADDY_2
 62
256
370
-1
  6
CONTINUOUS
 10
213.7073669433594034
 20
17.8235778808593786
 30
0.0
 11
213.7812194824219034
 21
17.8235778808593786
 31
0.0
  0
LINE
  5
582
100
AcDbEntity
100
AcDbLine
  8
CADDY_2
 62
256
370
-1
  6
CONTINUOUS
 10
214.0766143798828125
 20
17.8235778808593786
 30
0.0
 11
214.113525390625
 21
17.8235778808593786
 31
0.0
  0
LINE
  5
583
100
AcDbEntity
100
AcDbLine
  8
CADDY_2
 62
256
370
-1
  6
CONTINUOUS
 10
214.2242889404296875
 20
17.8235778808593786
 30
0.0
 11
214.3719940185546875
 21
17.8235778808593786
 31
0.0
  0
LINE
  5
584
100
AcDbEntity
100
AcDbLine
  8
CADDY_2
 62
256
370
-1
  6
CONTINUOUS
 10
214.5565948486328125
 20
17.8235778808593786
 30
0.0
 11
214.5934906005859091
 21
17.8235778808593786
 31
0.0
  0
LINE
  5
585
100
AcDbEntity
100
AcDbLine
  8
CADDY_2
 62
256
370
-1
  6
CONTINUOUS
 10
214.8889007568359091
 20
17.8235778808593786
 30
0.0
 11
214.9627075195311932
 21
17.8235778808593786
 31
0.0
  0
LINE
  5
586
100
AcDbEntity
100
AcDbLine
  8
CADDY_2
 62
256
370
-1
  6
CONTINUOUS
 10
215.0735015869140909
 20
17.8235778808593786
 30
0.0
 11
215.1473388671875
 21
17.8235778808593786
 31
0.0
  0
LINE
  5
587
100
AcDbEntity
100
AcDbLine
  8
CADDY_2
 62
256
370
-1
  6
CONTINUOUS
 10
215.5165710449219034
 20
17.8235778808593786
 30
0.0
 11
215.553466796875
 21
17.8235778808593786
 31
0.0
  0
LINE
  5
588
100
AcDbEntity
100
AcDbLine
  8
CADDY_2
 62
256
370
-1
  6
CONTINUOUS
 10
215.6642608642578125
 20
17.8235778808593786
 30
0.0
 11
215.8119506835938068
 21
17.8235778808593786
 31
0.0
  0
LINE
  5
589
100
AcDbEntity
100
AcDbLine
  8
CADDY_2
 62
256
370
-1
  6
CONTINUOUS
 10
215.9965667724609091
 20
17.8235778808593786
 30
0.0
 11
216.0334625244140909
 21
17.8235778808593786
 31
0.0
  0
LINE
  5
58A
100
AcDbEntity
100
AcDbLine
  8
CADDY_2
 62
256
370
-1
  6
CONTINUOUS
 10
216.3288421630859091
 20
17.8235778808593786
 30
0.0
 11
216.4026641845703125
 21
17.8235778808593786
 31
0.0
  0
LINE
  5
58B
100
AcDbEntity
100
AcDbLine
  8
CADDY_2
 62
256
370
-1
  6
CONTINUOUS
 10
216.5503692626953125
 20
17.8235778808593786
 30
0.0
 11
216.6242370605469034
 21
17.8235778808593786
 31
0.0
  0
LINE
  5
58C
100
AcDbEntity
100
AcDbLine
  8
CADDY_2
 62
256
370
-1
  6
CONTINUOUS
 10
217.0672912597655966
 20
17.8235778808593786
 30
0.0
 11
217.1042022705078125
 21
17.8235778808593786
 31
0.0
  0
LINE
  5
58D
100
AcDbEntity
100
AcDbLine
  8
CADDY_2
 62
256
370
-1
  6
CONTINUOUS
 10
217.2518920898438068
 20
17.8235778808593786
 30
0.0
 11
217.3257293701171875
 21
17.8235778808593786
 31
0.0
  0
LINE
  5
58E
100
AcDbEntity
100
AcDbLine
  8
CADDY_2
 62
256
370
-1
  6
CONTINUOUS
 10
217.7687835693359091
 20
17.8235778808593786
 30
0.0
 11
217.8426361083984091
 21
17.8235778808593786
 31
0.0
  0
LINE
  5
58F
100
AcDbEntity
100
AcDbLine
  8
CADDY_2
 62
256
370
-1
  6
CONTINUOUS
 10
218.2118682861328125
 20
17.8235778808593786
 30
0.0
 11
218.248779296875
 21
17.8235778808593786
 31
0.0
  0
LINE
  5
590
100
AcDbEntity
100
AcDbLine
  8
CADDY_2
 62
256
370
-1
  6
CONTINUOUS
 10
218.728759765625
 20
17.8235778808593786
 30
0.0
 11
218.8395385742188068
 21
17.8235778808593786
 31
0.0
  0
LINE
  5
591
100
AcDbEntity
100
AcDbLine
  8
CADDY_2
 62
256
370
-1
  6
CONTINUOUS
 10
219.5779571533203125
 20
17.8235778808593786
 30
0.0
 11
219.6148986816405966
 21
17.8235778808593786
 31
0.0
  0
LINE
  5
592
100
AcDbEntity
100
AcDbLine
  8
CADDY_2
 62
256
370
-1
  6
CONTINUOUS
 10
219.6887359619140909
 20
17.8235778808593786
 30
0.0
 11
219.7994995117188068
 21
17.8235778808593786
 31
0.0
  0
LINE
  5
593
100
AcDbEntity
100
AcDbLine
  8
CADDY_2
 62
256
370
-1
  6
CONTINUOUS
 10
219.9841156005859091
 20
17.8235778808593786
 30
0.0
 11
220.0210266113280966
 21
17.8235778808593786
 31
0.0
  0
LINE
  5
594
100
AcDbEntity
100
AcDbLine
  8
CADDY_2
 62
256
370
-1
  6
CONTINUOUS
 10
220.1318054199219034
 20
17.8235778808593786
 30
0.0
 11
220.2056274414061932
 21
17.8235778808593786
 31
0.0
  0
LINE
  5
595
100
AcDbEntity
100
AcDbLine
  8
CADDY_2
 62
256
370
-1
  6
CONTINUOUS
 10
220.5379333496094034
 20
17.8235778808593786
 30
0.0
 11
220.6117858886719034
 21
17.8235778808593786
 31
0.0
  0
LINE
  5
596
100
AcDbEntity
100
AcDbLine
  8
CADDY_2
 62
256
370
-1
  6
CONTINUOUS
 10
220.7594757080078125
 20
17.8235778808593786
 30
0.0
 11
220.8333129882811932
 21
17.8235778808593786
 31
0.0
  0
LINE
  5
597
100
AcDbEntity
100
AcDbLine
  8
CADDY_2
 62
256
370
-1
  6
CONTINUOUS
 10
221.2394866943359091
 20
17.8235778808593786
 30
0.0
 11
221.3132781982421875
 21
17.8235778808593786
 31
0.0
  0
LINE
  5
598
100
AcDbEntity
100
AcDbLine
  8
CADDY_2
 62
256
370
-1
  6
CONTINUOUS
 10
221.6825256347655966
 20
17.8235778808593786
 30
0.0
 11
221.7563781738280966
 21
17.8235778808593786
 31
0.0
  0
LINE
  5
599
100
AcDbEntity
100
AcDbLine
  8
CADDY_2
 62
256
370
-1
  6
CONTINUOUS
 10
204.9938049316405966
 20
17.86016845703125
 30
0.0
 11
205.067626953125
 21
17.86016845703125
 31
0.0
  0
LINE
  5
59A
100
AcDbEntity
100
AcDbLine
  8
CADDY_2
 62
256
370
-1
  6
CONTINUOUS
 10
205.21533203125
 20
17.86016845703125
 30
0.0
 11
205.2522277832030966
 21
17.86016845703125
 31
0.0
  0
LINE
  5
59B
100
AcDbEntity
100
AcDbLine
  8
CADDY_2
 62
256
370
-1
  6
CONTINUOUS
 10
205.6584014892578125
 20
17.86016845703125
 30
0.0
 11
205.7322540283203125
 21
17.86016845703125
 31
0.0
  0
LINE
  5
59C
100
AcDbEntity
100
AcDbLine
  8
CADDY_2
 62
256
370
-1
  6
CONTINUOUS
 10
206.2860870361328125
 20
17.86016845703125
 30
0.0
 11
206.3598937988280966
 21
17.86016845703125
 31
0.0
  0
LINE
  5
59D
100
AcDbEntity
100
AcDbLine
  8
CADDY_2
 62
256
370
-1
  6
CONTINUOUS
 10
206.5075988769530966
 20
17.86016845703125
 30
0.0
 11
206.5445404052734091
 21
17.86016845703125
 31
0.0
  0
LINE
  5
59E
100
AcDbEntity
100
AcDbLine
  8
CADDY_2
 62
256
370
-1
  6
CONTINUOUS
 10
206.9506683349609091
 20
17.86016845703125
 30
0.0
 11
207.0245361328125
 21
17.86016845703125
 31
0.0
  0
LINE
  5
59F
100
AcDbEntity
100
AcDbLine
  8
CADDY_2
 62
256
370
-1
  6
CONTINUOUS
 10
207.1352691650390909
 20
17.86016845703125
 30
0.0
 11
207.1722106933594034
 21
17.86016845703125
 31
0.0
  0
LINE
  5
5A0
100
AcDbEntity
100
AcDbLine
  8
CADDY_2
 62
256
370
-1
  6
CONTINUOUS
 10
207.8368072509765909
 20
17.86016845703125
 30
0.0
 11
207.9106292724609091
 21
17.86016845703125
 31
0.0
  0
LINE
  5
5A1
100
AcDbEntity
100
AcDbLine
  8
CADDY_2
 62
256
370
-1
  6
CONTINUOUS
 10
208.4275360107421875
 20
17.86016845703125
 30
0.0
 11
208.5014038085938068
 21
17.86016845703125
 31
0.0
  0
LINE
  5
5A2
100
AcDbEntity
100
AcDbLine
  8
CADDY_2
 62
256
370
-1
  6
CONTINUOUS
 10
208.722900390625
 20
17.86016845703125
 30
0.0
 11
208.8336791992188068
 21
17.86016845703125
 31
0.0
  0
LINE
  5
5A3
100
AcDbEntity
100
AcDbLine
  8
CADDY_2
 62
256
370
-1
  6
CONTINUOUS
 10
208.9813690185546875
 20
17.86016845703125
 30
0.0
 11
209.0921630859375
 21
17.86016845703125
 31
0.0
  0
LINE
  5
5A4
100
AcDbEntity
100
AcDbLine
  8
CADDY_2
 62
256
370
-1
  6
CONTINUOUS
 10
209.6090545654296875
 20
17.86016845703125
 30
0.0
 11
209.7198486328125
 21
17.86016845703125
 31
0.0
  0
LINE
  5
5A5
100
AcDbEntity
100
AcDbLine
  8
CADDY_2
 62
256
370
-1
  6
CONTINUOUS
 10
209.9044494628905966
 20
17.86016845703125
 30
0.0
 11
209.9413452148438068
 21
17.86016845703125
 31
0.0
  0
LINE
  5
5A6
100
AcDbEntity
100
AcDbLine
  8
CADDY_2
 62
256
370
-1
  6
CONTINUOUS
 10
210.0151824951171875
 20
17.86016845703125
 30
0.0
 11
210.0890502929688068
 21
17.86016845703125
 31
0.0
  0
LINE
  5
5A7
100
AcDbEntity
100
AcDbLine
  8
CADDY_2
 62
256
370
-1
  6
CONTINUOUS
 10
210.3474731445311932
 20
17.86016845703125
 30
0.0
 11
210.3844299316405966
 21
17.86016845703125
 31
0.0
  0
LINE
  5
5A8
100
AcDbEntity
100
AcDbLine
  8
CADDY_2
 62
256
370
-1
  6
CONTINUOUS
 10
210.458251953125
 20
17.86016845703125
 30
0.0
 11
210.5321044921875
 21
17.86016845703125
 31
0.0
  0
LINE
  5
5A9
100
AcDbEntity
100
AcDbLine
  8
CADDY_2
 62
256
370
-1
  6
CONTINUOUS
 10
210.9382476806640909
 20
17.86016845703125
 30
0.0
 11
210.9751434326171875
 21
17.86016845703125
 31
0.0
  0
LINE
  5
5AA
100
AcDbEntity
100
AcDbLine
  8
CADDY_2
 62
256
370
-1
  6
CONTINUOUS
 10
211.0859222412109091
 20
17.86016845703125
 30
0.0
 11
211.1597595214844034
 21
17.86016845703125
 31
0.0
  0
LINE
  5
5AB
100
AcDbEntity
100
AcDbLine
  8
CADDY_2
 62
256
370
-1
  6
CONTINUOUS
 10
211.5289764404296875
 20
17.86016845703125
 30
0.0
 11
211.6766815185546875
 21
17.86016845703125
 31
0.0
  0
LINE
  5
5AC
100
AcDbEntity
100
AcDbLine
  8
CADDY_2
 62
256
370
-1
  6
CONTINUOUS
 10
212.0458984375
 20
17.86016845703125
 30
0.0
 11
212.1566772460938068
 21
17.86016845703125
 31
0.0
  0
LINE
  5
5AD
100
AcDbEntity
100
AcDbLine
  8
CADDY_2
 62
256
370
-1
  6
CONTINUOUS
 10
212.8581848144530966
 20
17.86016845703125
 30
0.0
 11
212.9320220947265909
 21
17.86016845703125
 31
0.0
  0
LINE
  5
5AE
100
AcDbEntity
100
AcDbLine
  8
CADDY_2
 62
256
370
-1
  6
CONTINUOUS
 10
213.3012390136719034
 20
17.86016845703125
 30
0.0
 11
213.3750762939453125
 21
17.86016845703125
 31
0.0
  0
LINE
  5
5AF
100
AcDbEntity
100
AcDbLine
  8
CADDY_2
 62
256
370
-1
  6
CONTINUOUS
 10
213.7073669433594034
 20
17.86016845703125
 30
0.0
 11
213.7812194824219034
 21
17.86016845703125
 31
0.0
  0
LINE
  5
5B0
100
AcDbEntity
100
AcDbLine
  8
CADDY_2
 62
256
370
-1
  6
CONTINUOUS
 10
214.0766143798828125
 20
17.86016845703125
 30
0.0
 11
214.113525390625
 21
17.86016845703125
 31
0.0
  0
LINE
  5
5B1
100
AcDbEntity
100
AcDbLine
  8
CADDY_2
 62
256
370
-1
  6
CONTINUOUS
 10
214.2242889404296875
 20
17.86016845703125
 30
0.0
 11
214.3350372314453125
 21
17.86016845703125
 31
0.0
  0
LINE
  5
5B2
100
AcDbEntity
100
AcDbLine
  8
CADDY_2
 62
256
370
-1
  6
CONTINUOUS
 10
214.5565948486328125
 20
17.86016845703125
 30
0.0
 11
214.5934906005859091
 21
17.86016845703125
 31
0.0
  0
LINE
  5
5B3
100
AcDbEntity
100
AcDbLine
  8
CADDY_2
 62
256
370
-1
  6
CONTINUOUS
 10
214.8889007568359091
 20
17.86016845703125
 30
0.0
 11
214.9627075195311932
 21
17.86016845703125
 31
0.0
  0
LINE
  5
5B4
100
AcDbEntity
100
AcDbLine
  8
CADDY_2
 62
256
370
-1
  6
CONTINUOUS
 10
215.1103973388671875
 20
17.86016845703125
 30
0.0
 11
215.1473388671875
 21
17.86016845703125
 31
0.0
  0
LINE
  5
5B5
100
AcDbEntity
100
AcDbLine
  8
CADDY_2
 62
256
370
-1
  6
CONTINUOUS
 10
215.5165710449219034
 20
17.86016845703125
 30
0.0
 11
215.553466796875
 21
17.86016845703125
 31
0.0
  0
LINE
  5
5B6
100
AcDbEntity
100
AcDbLine
  8
CADDY_2
 62
256
370
-1
  6
CONTINUOUS
 10
215.6642608642578125
 20
17.86016845703125
 30
0.0
 11
215.7749938964844034
 21
17.86016845703125
 31
0.0
  0
LINE
  5
5B7
100
AcDbEntity
100
AcDbLine
  8
CADDY_2
 62
256
370
-1
  6
CONTINUOUS
 10
215.9965667724609091
 20
17.86016845703125
 30
0.0
 11
216.0334625244140909
 21
17.86016845703125
 31
0.0
  0
LINE
  5
5B8
100
AcDbEntity
100
AcDbLine
  8
CADDY_2
 62
256
370
-1
  6
CONTINUOUS
 10
216.3288421630859091
 20
17.86016845703125
 30
0.0
 11
216.4026641845703125
 21
17.86016845703125
 31
0.0
  0
LINE
  5
5B9
100
AcDbEntity
100
AcDbLine
  8
CADDY_2
 62
256
370
-1
  6
CONTINUOUS
 10
216.5872802734375
 20
17.86016845703125
 30
0.0
 11
216.6980590820311932
 21
17.86016845703125
 31
0.0
  0
LINE
  5
5BA
100
AcDbEntity
100
AcDbLine
  8
CADDY_2
 62
256
370
-1
  6
CONTINUOUS
 10
217.1042022705078125
 20
17.86016845703125
 30
0.0
 11
217.1411285400390909
 21
17.86016845703125
 31
0.0
  0
LINE
  5
5BB
100
AcDbEntity
100
AcDbLine
  8
CADDY_2
 62
256
370
-1
  6
CONTINUOUS
 10
217.2518920898438068
 20
17.86016845703125
 30
0.0
 11
217.3257293701171875
 21
17.86016845703125
 31
0.0
  0
LINE
  5
5BC
100
AcDbEntity
100
AcDbLine
  8
CADDY_2
 62
256
370
-1
  6
CONTINUOUS
 10
217.7687835693359091
 20
17.86016845703125
 30
0.0
 11
217.8426361083984091
 21
17.86016845703125
 31
0.0
  0
LINE
  5
5BD
100
AcDbEntity
100
AcDbLine
  8
CADDY_2
 62
256
370
-1
  6
CONTINUOUS
 10
218.2118682861328125
 20
17.86016845703125
 30
0.0
 11
218.248779296875
 21
17.86016845703125
 31
0.0
  0
LINE
  5
5BE
100
AcDbEntity
100
AcDbLine
  8
CADDY_2
 62
256
370
-1
  6
CONTINUOUS
 10
218.728759765625
 20
17.86016845703125
 30
0.0
 11
218.8395385742188068
 21
17.86016845703125
 31
0.0
  0
LINE
  5
5BF
100
AcDbEntity
100
AcDbLine
  8
CADDY_2
 62
256
370
-1
  6
CONTINUOUS
 10
219.5779571533203125
 20
17.86016845703125
 30
0.0
 11
219.6148986816405966
 21
17.86016845703125
 31
0.0
  0
LINE
  5
5C0
100
AcDbEntity
100
AcDbLine
  8
CADDY_2
 62
256
370
-1
  6
CONTINUOUS
 10
219.6887359619140909
 20
17.86016845703125
 30
0.0
 11
219.7625732421875
 21
17.86016845703125
 31
0.0
  0
LINE
  5
5C1
100
AcDbEntity
100
AcDbLine
  8
CADDY_2
 62
256
370
-1
  6
CONTINUOUS
 10
220.0210266113280966
 20
17.86016845703125
 30
0.0
 11
220.0579376220703125
 21
17.86016845703125
 31
0.0
  0
LINE
  5
5C2
100
AcDbEntity
100
AcDbLine
  8
CADDY_2
 62
256
370
-1
  6
CONTINUOUS
 10
220.1318054199219034
 20
17.86016845703125
 30
0.0
 11
220.2056274414061932
 21
17.86016845703125
 31
0.0
  0
LINE
  5
5C3
100
AcDbEntity
100
AcDbLine
  8
CADDY_2
 62
256
370
-1
  6
CONTINUOUS
 10
220.5379333496094034
 20
17.86016845703125
 30
0.0
 11
220.6117858886719034
 21
17.86016845703125
 31
0.0
  0
LINE
  5
5C4
100
AcDbEntity
100
AcDbLine
  8
CADDY_2
 62
256
370
-1
  6
CONTINUOUS
 10
220.7964019775390909
 20
17.86016845703125
 30
0.0
 11
220.9071807861328125
 21
17.86016845703125
 31
0.0
  0
LINE
  5
5C5
100
AcDbEntity
100
AcDbLine
  8
CADDY_2
 62
256
370
-1
  6
CONTINUOUS
 10
221.2394866943359091
 20
17.86016845703125
 30
0.0
 11
221.3132781982421875
 21
17.86016845703125
 31
0.0
  0
LINE
  5
5C6
100
AcDbEntity
100
AcDbLine
  8
CADDY_2
 62
256
370
-1
  6
CONTINUOUS
 10
221.6825256347655966
 20
17.86016845703125
 30
0.0
 11
221.7563781738280966
 21
17.86016845703125
 31
0.0
  0
LINE
  5
5C7
100
AcDbEntity
100
AcDbLine
  8
CADDY_2
 62
256
370
-1
  6
CONTINUOUS
 10
204.9938049316405966
 20
17.8967437744140589
 30
0.0
 11
205.067626953125
 21
17.8967437744140589
 31
0.0
  0
LINE
  5
5C8
100
AcDbEntity
100
AcDbLine
  8
CADDY_2
 62
256
370
-1
  6
CONTINUOUS
 10
205.21533203125
 20
17.8967437744140589
 30
0.0
 11
205.2522277832030966
 21
17.8967437744140589
 31
0.0
  0
LINE
  5
5C9
100
AcDbEntity
100
AcDbLine
  8
CADDY_2
 62
256
370
-1
  6
CONTINUOUS
 10
205.6584014892578125
 20
17.8967437744140589
 30
0.0
 11
205.7322540283203125
 21
17.8967437744140589
 31
0.0
  0
LINE
  5
5CA
100
AcDbEntity
100
AcDbLine
  8
CADDY_2
 62
256
370
-1
  6
CONTINUOUS
 10
206.2860870361328125
 20
17.8967437744140589
 30
0.0
 11
206.3598937988280966
 21
17.8967437744140589
 31
0.0
  0
LINE
  5
5CB
100
AcDbEntity
100
AcDbLine
  8
CADDY_2
 62
256
370
-1
  6
CONTINUOUS
 10
206.5075988769530966
 20
17.8967437744140589
 30
0.0
 11
206.5445404052734091
 21
17.8967437744140589
 31
0.0
  0
LINE
  5
5CC
100
AcDbEntity
100
AcDbLine
  8
CADDY_2
 62
256
370
-1
  6
CONTINUOUS
 10
206.9506683349609091
 20
17.8967437744140589
 30
0.0
 11
207.0245361328125
 21
17.8967437744140589
 31
0.0
  0
LINE
  5
5CD
100
AcDbEntity
100
AcDbLine
  8
CADDY_2
 62
256
370
-1
  6
CONTINUOUS
 10
207.1722106933594034
 20
17.8967437744140589
 30
0.0
 11
207.2460327148438068
 21
17.8967437744140589
 31
0.0
  0
LINE
  5
5CE
100
AcDbEntity
100
AcDbLine
  8
CADDY_2
 62
256
370
-1
  6
CONTINUOUS
 10
207.8368072509765909
 20
17.8967437744140589
 30
0.0
 11
207.9106292724609091
 21
17.8967437744140589
 31
0.0
  0
LINE
  5
5CF
100
AcDbEntity
100
AcDbLine
  8
CADDY_2
 62
256
370
-1
  6
CONTINUOUS
 10
208.4275360107421875
 20
17.8967437744140589
 30
0.0
 11
208.5014038085938068
 21
17.8967437744140589
 31
0.0
  0
LINE
  5
5D0
100
AcDbEntity
100
AcDbLine
  8
CADDY_2
 62
256
370
-1
  6
CONTINUOUS
 10
208.7598724365234091
 20
17.8967437744140589
 30
0.0
 11
208.87060546875
 21
17.8967437744140589
 31
0.0
  0
LINE
  5
5D1
100
AcDbEntity
100
AcDbLine
  8
CADDY_2
 62
256
370
-1
  6
CONTINUOUS
 10
209.0182952880859091
 20
17.8967437744140589
 30
0.0
 11
209.1290740966796875
 21
17.8967437744140589
 31
0.0
  0
LINE
  5
5D2
100
AcDbEntity
100
AcDbLine
  8
CADDY_2
 62
256
370
-1
  6
CONTINUOUS
 10
209.6090545654296875
 20
17.8967437744140589
 30
0.0
 11
209.6828765869140909
 21
17.8967437744140589
 31
0.0
  0
LINE
  5
5D3
100
AcDbEntity
100
AcDbLine
  8
CADDY_2
 62
256
370
-1
  6
CONTINUOUS
 10
209.9044494628905966
 20
17.8967437744140589
 30
0.0
 11
210.0890502929688068
 21
17.8967437744140589
 31
0.0
  0
LINE
  5
5D4
100
AcDbEntity
100
AcDbLine
  8
CADDY_2
 62
256
370
-1
  6
CONTINUOUS
 10
210.3474731445311932
 20
17.8967437744140589
 30
0.0
 11
210.5321044921875
 21
17.8967437744140589
 31
0.0
  0
LINE
  5
5D5
100
AcDbEntity
100
AcDbLine
  8
CADDY_2
 62
256
370
-1
  6
CONTINUOUS
 10
210.9751434326171875
 20
17.8967437744140589
 30
0.0
 11
211.0120849609375
 21
17.8967437744140589
 31
0.0
  0
LINE
  5
5D6
100
AcDbEntity
100
AcDbLine
  8
CADDY_2
 62
256
370
-1
  6
CONTINUOUS
 10
211.0859222412109091
 20
17.8967437744140589
 30
0.0
 11
211.1597595214844034
 21
17.8967437744140589
 31
0.0
  0
LINE
  5
5D7
100
AcDbEntity
100
AcDbLine
  8
CADDY_2
 62
256
370
-1
  6
CONTINUOUS
 10
211.5289764404296875
 20
17.8967437744140589
 30
0.0
 11
211.6397705078125
 21
17.8967437744140589
 31
0.0
  0
LINE
  5
5D8
100
AcDbEntity
100
AcDbLine
  8
CADDY_2
 62
256
370
-1
  6
CONTINUOUS
 10
212.0828247070311932
 20
17.8967437744140589
 30
0.0
 11
212.1935882568359091
 21
17.8967437744140589
 31
0.0
  0
LINE
  5
5D9
100
AcDbEntity
100
AcDbLine
  8
CADDY_2
 62
256
370
-1
  6
CONTINUOUS
 10
212.6366577148438068
 20
17.8967437744140589
 30
0.0
 11
212.6735534667969034
 21
17.8967437744140589
 31
0.0
  0
LINE
  5
5DA
100
AcDbEntity
100
AcDbLine
  8
CADDY_2
 62
256
370
-1
  6
CONTINUOUS
 10
212.8581848144530966
 20
17.8967437744140589
 30
0.0
 11
212.9320220947265909
 21
17.8967437744140589
 31
0.0
  0
LINE
  5
5DB
100
AcDbEntity
100
AcDbLine
  8
CADDY_2
 62
256
370
-1
  6
CONTINUOUS
 10
213.3012390136719034
 20
17.8967437744140589
 30
0.0
 11
213.3750762939453125
 21
17.8967437744140589
 31
0.0
  0
LINE
  5
5DC
100
AcDbEntity
100
AcDbLine
  8
CADDY_2
 62
256
370
-1
  6
CONTINUOUS
 10
213.7073669433594034
 20
17.8967437744140589
 30
0.0
 11
213.7812194824219034
 21
17.8967437744140589
 31
0.0
  0
LINE
  5
5DD
100
AcDbEntity
100
AcDbLine
  8
CADDY_2
 62
256
370
-1
  6
CONTINUOUS
 10
214.0766143798828125
 20
17.8967437744140589
 30
0.0
 11
214.113525390625
 21
17.8967437744140589
 31
0.0
  0
LINE
  5
5DE
100
AcDbEntity
100
AcDbLine
  8
CADDY_2
 62
256
370
-1
  6
CONTINUOUS
 10
214.1873779296875
 20
17.8967437744140589
 30
0.0
 11
214.3350372314453125
 21
17.8967437744140589
 31
0.0
  0
LINE
  5
5DF
100
AcDbEntity
100
AcDbLine
  8
CADDY_2
 62
256
370
-1
  6
CONTINUOUS
 10
214.5565948486328125
 20
17.8967437744140589
 30
0.0
 11
214.5934906005859091
 21
17.8967437744140589
 31
0.0
  0
LINE
  5
5E0
100
AcDbEntity
100
AcDbLine
  8
CADDY_2
 62
256
370
-1
  6
CONTINUOUS
 10
214.8889007568359091
 20
17.8967437744140589
 30
0.0
 11
214.9627075195311932
 21
17.8967437744140589
 31
0.0
  0
LINE
  5
5E1
100
AcDbEntity
100
AcDbLine
  8
CADDY_2
 62
256
370
-1
  6
CONTINUOUS
 10
215.1103973388671875
 20
17.8967437744140589
 30
0.0
 11
215.1473388671875
 21
17.8967437744140589
 31
0.0
  0
LINE
  5
5E2
100
AcDbEntity
100
AcDbLine
  8
CADDY_2
 62
256
370
-1
  6
CONTINUOUS
 10
215.5165710449219034
 20
17.8967437744140589
 30
0.0
 11
215.553466796875
 21
17.8967437744140589
 31
0.0
  0
LINE
  5
5E3
100
AcDbEntity
100
AcDbLine
  8
CADDY_2
 62
256
370
-1
  6
CONTINUOUS
 10
215.6273040771484091
 20
17.8967437744140589
 30
0.0
 11
215.7749938964844034
 21
17.8967437744140589
 31
0.0
  0
LINE
  5
5E4
100
AcDbEntity
100
AcDbLine
  8
CADDY_2
 62
256
370
-1
  6
CONTINUOUS
 10
215.9965667724609091
 20
17.8967437744140589
 30
0.0
 11
216.0334625244140909
 21
17.8967437744140589
 31
0.0
  0
LINE
  5
5E5
100
AcDbEntity
100
AcDbLine
  8
CADDY_2
 62
256
370
-1
  6
CONTINUOUS
 10
216.3288421630859091
 20
17.8967437744140589
 30
0.0
 11
216.4026641845703125
 21
17.8967437744140589
 31
0.0
  0
LINE
  5
5E6
100
AcDbEntity
100
AcDbLine
  8
CADDY_2
 62
256
370
-1
  6
CONTINUOUS
 10
216.6242370605469034
 20
17.8967437744140589
 30
0.0
 11
216.7349853515625
 21
17.8967437744140589
 31
0.0
  0
LINE
  5
5E7
100
AcDbEntity
100
AcDbLine
  8
CADDY_2
 62
256
370
-1
  6
CONTINUOUS
 10
217.1411285400390909
 20
17.8967437744140589
 30
0.0
 11
217.1780395507811932
 21
17.8967437744140589
 31
0.0
  0
LINE
  5
5E8
100
AcDbEntity
100
AcDbLine
  8
CADDY_2
 62
256
370
-1
  6
CONTINUOUS
 10
217.2518920898438068
 20
17.8967437744140589
 30
0.0
 11
217.3257293701171875
 21
17.8967437744140589
 31
0.0
  0
LINE
  5
5E9
100
AcDbEntity
100
AcDbLine
  8
CADDY_2
 62
256
370
-1
  6
CONTINUOUS
 10
217.7687835693359091
 20
17.8967437744140589
 30
0.0
 11
217.8426361083984091
 21
17.8967437744140589
 31
0.0
  0
LINE
  5
5EA
100
AcDbEntity
100
AcDbLine
  8
CADDY_2
 62
256
370
-1
  6
CONTINUOUS
 10
218.2118682861328125
 20
17.8967437744140589
 30
0.0
 11
218.248779296875
 21
17.8967437744140589
 31
0.0
  0
LINE
  5
5EB
100
AcDbEntity
100
AcDbLine
  8
CADDY_2
 62
256
370
-1
  6
CONTINUOUS
 10
218.7656860351561932
 20
17.8967437744140589
 30
0.0
 11
218.87646484375
 21
17.8967437744140589
 31
0.0
  0
LINE
  5
5EC
100
AcDbEntity
100
AcDbLine
  8
CADDY_2
 62
256
370
-1
  6
CONTINUOUS
 10
219.2825775146484091
 20
17.8967437744140589
 30
0.0
 11
219.3195343017578125
 21
17.8967437744140589
 31
0.0
  0
LINE
  5
5ED
100
AcDbEntity
100
AcDbLine
  8
CADDY_2
 62
256
370
-1
  6
CONTINUOUS
 10
219.5779571533203125
 20
17.8967437744140589
 30
0.0
 11
219.7625732421875
 21
17.8967437744140589
 31
0.0
  0
LINE
  5
5EE
100
AcDbEntity
100
AcDbLine
  8
CADDY_2
 62
256
370
-1
  6
CONTINUOUS
 10
220.0210266113280966
 20
17.8967437744140589
 30
0.0
 11
220.2056274414061932
 21
17.8967437744140589
 31
0.0
  0
LINE
  5
5EF
100
AcDbEntity
100
AcDbLine
  8
CADDY_2
 62
256
370
-1
  6
CONTINUOUS
 10
220.5379333496094034
 20
17.8967437744140589
 30
0.0
 11
220.6117858886719034
 21
17.8967437744140589
 31
0.0
  0
LINE
  5
5F0
100
AcDbEntity
100
AcDbLine
  8
CADDY_2
 62
256
370
-1
  6
CONTINUOUS
 10
220.8333129882811932
 20
17.8967437744140589
 30
0.0
 11
220.944091796875
 21
17.8967437744140589
 31
0.0
  0
LINE
  5
5F1
100
AcDbEntity
100
AcDbLine
  8
CADDY_2
 62
256
370
-1
  6
CONTINUOUS
 10
221.2394866943359091
 20
17.8967437744140589
 30
0.0
 11
221.3132781982421875
 21
17.8967437744140589
 31
0.0
  0
LINE
  5
5F2
100
AcDbEntity
100
AcDbLine
  8
CADDY_2
 62
256
370
-1
  6
CONTINUOUS
 10
221.6825256347655966
 20
17.8967437744140589
 30
0.0
 11
221.7563781738280966
 21
17.8967437744140589
 31
0.0
  0
LINE
  5
5F3
100
AcDbEntity
100
AcDbLine
  8
CADDY_2
 62
256
370
-1
  6
CONTINUOUS
 10
205.0307312011719034
 20
17.9333190917968786
 30
0.0
 11
205.1045837402344034
 21
17.9333190917968786
 31
0.0
  0
LINE
  5
5F4
100
AcDbEntity
100
AcDbLine
  8
CADDY_2
 62
256
370
-1
  6
CONTINUOUS
 10
205.6953125
 20
17.9333190917968786
 30
0.0
 11
205.7691650390625
 21
17.9333190917968786
 31
0.0
  0
LINE
  5
5F5
100
AcDbEntity
100
AcDbLine
  8
CADDY_2
 62
256
370
-1
  6
CONTINUOUS
 10
206.322998046875
 20
17.9333190917968786
 30
0.0
 11
206.3968353271484091
 21
17.9333190917968786
 31
0.0
  0
LINE
  5
5F6
100
AcDbEntity
100
AcDbLine
  8
CADDY_2
 62
256
370
-1
  6
CONTINUOUS
 10
206.9875793457030966
 20
17.9333190917968786
 30
0.0
 11
207.0614318847655966
 21
17.9333190917968786
 31
0.0
  0
LINE
  5
5F7
100
AcDbEntity
100
AcDbLine
  8
CADDY_2
 62
256
370
-1
  6
CONTINUOUS
 10
207.2460327148438068
 20
17.9333190917968786
 30
0.0
 11
207.2829742431640909
 21
17.9333190917968786
 31
0.0
  0
LINE
  5
5F8
100
AcDbEntity
100
AcDbLine
  8
CADDY_2
 62
256
370
-1
  6
CONTINUOUS
 10
207.5783386230469034
 20
17.9333190917968786
 30
0.0
 11
207.6152496337890909
 21
17.9333190917968786
 31
0.0
  0
LINE
  5
5F9
100
AcDbEntity
100
AcDbLine
  8
CADDY_2
 62
256
370
-1
  6
CONTINUOUS
 10
207.8737030029296875
 20
17.9333190917968786
 30
0.0
 11
207.9475555419921875
 21
17.9333190917968786
 31
0.0
  0
LINE
  5
5FA
100
AcDbEntity
100
AcDbLine
  8
CADDY_2
 62
256
370
-1
  6
CONTINUOUS
 10
208.2060089111328125
 20
17.9333190917968786
 30
0.0
 11
208.242919921875
 21
17.9333190917968786
 31
0.0
  0
LINE
  5
5FB
100
AcDbEntity
100
AcDbLine
  8
CADDY_2
 62
256
370
-1
  6
CONTINUOUS
 10
208.4644775390625
 20
17.9333190917968786
 30
0.0
 11
208.5382995605469034
 21
17.9333190917968786
 31
0.0
  0
LINE
  5
5FC
100
AcDbEntity
100
AcDbLine
  8
CADDY_2
 62
256
370
-1
  6
CONTINUOUS
 10
208.7967681884765909
 20
17.9333190917968786
 30
0.0
 11
208.9075317382811932
 21
17.9333190917968786
 31
0.0
  0
LINE
  5
5FD
100
AcDbEntity
100
AcDbLine
  8
CADDY_2
 62
256
370
-1
  6
CONTINUOUS
 10
209.0552062988280966
 20
17.9333190917968786
 30
0.0
 11
209.1659698486328125
 21
17.9333190917968786
 31
0.0
  0
LINE
  5
5FE
100
AcDbEntity
100
AcDbLine
  8
CADDY_2
 62
256
370
-1
  6
CONTINUOUS
 10
209.5721435546875
 20
17.9333190917968786
 30
0.0
 11
209.6828765869140909
 21
17.9333190917968786
 31
0.0
  0
LINE
  5
5FF
100
AcDbEntity
100
AcDbLine
  8
CADDY_2
 62
256
370
-1
  6
CONTINUOUS
 10
209.9413452148438068
 20
17.9333190917968786
 30
0.0
 11
210.0890502929688068
 21
17.9333190917968786
 31
0.0
  0
LINE
  5
600
100
AcDbEntity
100
AcDbLine
  8
CADDY_2
 62
256
370
-1
  6
CONTINUOUS
 10
210.3844299316405966
 20
17.9333190917968786
 30
0.0
 11
210.5690307617188068
 21
17.9333190917968786
 31
0.0
  0
LINE
  5
601
100
AcDbEntity
100
AcDbLine
  8
CADDY_2
 62
256
370
-1
  6
CONTINUOUS
 10
211.0120849609375
 20
17.9333190917968786
 30
0.0
 11
211.1597595214844034
 21
17.9333190917968786
 31
0.0
  0
LINE
  5
602
100
AcDbEntity
100
AcDbLine
  8
CADDY_2
 62
256
370
-1
  6
CONTINUOUS
 10
211.56591796875
 20
17.9333190917968786
 30
0.0
 11
211.6397705078125
 21
17.9333190917968786
 31
0.0
  0
LINE
  5
603
100
AcDbEntity
100
AcDbLine
  8
CADDY_2
 62
256
370
-1
  6
CONTINUOUS
 10
211.8243713378905966
 20
17.9333190917968786
 30
0.0
 11
211.8982238769530966
 21
17.9333190917968786
 31
0.0
  0
LINE
  5
604
100
AcDbEntity
100
AcDbLine
  8
CADDY_2
 62
256
370
-1
  6
CONTINUOUS
 10
212.1197509765625
 20
17.9333190917968786
 30
0.0
 11
212.2304992675780966
 21
17.9333190917968786
 31
0.0
  0
LINE
  5
605
100
AcDbEntity
100
AcDbLine
  8
CADDY_2
 62
256
370
-1
  6
CONTINUOUS
 10
212.6366577148438068
 20
17.9333190917968786
 30
0.0
 11
212.7104949951171875
 21
17.9333190917968786
 31
0.0
  0
LINE
  5
606
100
AcDbEntity
100
AcDbLine
  8
CADDY_2
 62
256
370
-1
  6
CONTINUOUS
 10
212.8950958251953125
 20
17.9333190917968786
 30
0.0
 11
212.9689483642578125
 21
17.9333190917968786
 31
0.0
  0
LINE
  5
607
100
AcDbEntity
100
AcDbLine
  8
CADDY_2
 62
256
370
-1
  6
CONTINUOUS
 10
213.3381652832030966
 20
17.9333190917968786
 30
0.0
 11
213.4120178222655966
 21
17.9333190917968786
 31
0.0
  0
LINE
  5
608
100
AcDbEntity
100
AcDbLine
  8
CADDY_2
 62
256
370
-1
  6
CONTINUOUS
 10
213.7443237304688068
 20
17.9333190917968786
 30
0.0
 11
213.8181457519530966
 21
17.9333190917968786
 31
0.0
  0
LINE
  5
609
100
AcDbEntity
100
AcDbLine
  8
CADDY_2
 62
256
370
-1
  6
CONTINUOUS
 10
214.113525390625
 20
17.9333190917968786
 30
0.0
 11
214.3350372314453125
 21
17.9333190917968786
 31
0.0
  0
LINE
  5
60A
100
AcDbEntity
100
AcDbLine
  8
CADDY_2
 62
256
370
-1
  6
CONTINUOUS
 10
214.5934906005859091
 20
17.9333190917968786
 30
0.0
 11
214.6304168701171875
 21
17.9333190917968786
 31
0.0
  0
LINE
  5
60B
100
AcDbEntity
100
AcDbLine
  8
CADDY_2
 62
256
370
-1
  6
CONTINUOUS
 10
214.9257965087890909
 20
17.9333190917968786
 30
0.0
 11
214.9996643066405966
 21
17.9333190917968786
 31
0.0
  0
LINE
  5
60C
100
AcDbEntity
100
AcDbLine
  8
CADDY_2
 62
256
370
-1
  6
CONTINUOUS
 10
215.553466796875
 20
17.9333190917968786
 30
0.0
 11
215.7749938964844034
 21
17.9333190917968786
 31
0.0
  0
LINE
  5
60D
100
AcDbEntity
100
AcDbLine
  8
CADDY_2
 62
256
370
-1
  6
CONTINUOUS
 10
216.0334625244140909
 20
17.9333190917968786
 30
0.0
 11
216.0703735351561932
 21
17.9333190917968786
 31
0.0
  0
LINE
  5
60E
100
AcDbEntity
100
AcDbLine
  8
CADDY_2
 62
256
370
-1
  6
CONTINUOUS
 10
216.3657684326171875
 20
17.9333190917968786
 30
0.0
 11
216.4396209716796875
 21
17.9333190917968786
 31
0.0
  0
LINE
  5
60F
100
AcDbEntity
100
AcDbLine
  8
CADDY_2
 62
256
370
-1
  6
CONTINUOUS
 10
216.6611328125
 20
17.9333190917968786
 30
0.0
 11
216.7718963623046875
 21
17.9333190917968786
 31
0.0
  0
LINE
  5
610
100
AcDbEntity
100
AcDbLine
  8
CADDY_2
 62
256
370
-1
  6
CONTINUOUS
 10
217.1780395507811932
 20
17.9333190917968786
 30
0.0
 11
217.3257293701171875
 21
17.9333190917968786
 31
0.0
  0
LINE
  5
611
100
AcDbEntity
100
AcDbLine
  8
CADDY_2
 62
256
370
-1
  6
CONTINUOUS
 10
217.8057098388671875
 20
17.9333190917968786
 30
0.0
 11
217.8795776367188068
 21
17.9333190917968786
 31
0.0
  0
LINE
  5
612
100
AcDbEntity
100
AcDbLine
  8
CADDY_2
 62
256
370
-1
  6
CONTINUOUS
 10
218.248779296875
 20
17.9333190917968786
 30
0.0
 11
218.2857055664061932
 21
17.9333190917968786
 31
0.0
  0
LINE
  5
613
100
AcDbEntity
100
AcDbLine
  8
CADDY_2
 62
256
370
-1
  6
CONTINUOUS
 10
218.8026123046875
 20
17.9333190917968786
 30
0.0
 11
218.9133605957030966
 21
17.9333190917968786
 31
0.0
  0
LINE
  5
614
100
AcDbEntity
100
AcDbLine
  8
CADDY_2
 62
256
370
-1
  6
CONTINUOUS
 10
219.2825775146484091
 20
17.9333190917968786
 30
0.0
 11
219.3564453125
 21
17.9333190917968786
 31
0.0
  0
LINE
  5
615
100
AcDbEntity
100
AcDbLine
  8
CADDY_2
 62
256
370
-1
  6
CONTINUOUS
 10
219.6148986816405966
 20
17.9333190917968786
 30
0.0
 11
219.7625732421875
 21
17.9333190917968786
 31
0.0
  0
LINE
  5
616
100
AcDbEntity
100
AcDbLine
  8
CADDY_2
 62
256
370
-1
  6
CONTINUOUS
 10
220.0579376220703125
 20
17.9333190917968786
 30
0.0
 11
220.2425384521484091
 21
17.9333190917968786
 31
0.0
  0
LINE
  5
617
100
AcDbEntity
100
AcDbLine
  8
CADDY_2
 62
256
370
-1
  6
CONTINUOUS
 10
220.5748596191405966
 20
17.9333190917968786
 30
0.0
 11
220.6487121582030966
 21
17.9333190917968786
 31
0.0
  0
LINE
  5
618
100
AcDbEntity
100
AcDbLine
  8
CADDY_2
 62
256
370
-1
  6
CONTINUOUS
 10
220.8702239990234091
 20
17.9333190917968786
 30
0.0
 11
220.9810028076171875
 21
17.9333190917968786
 31
0.0
  0
LINE
  5
619
100
AcDbEntity
100
AcDbLine
  8
CADDY_2
 62
256
370
-1
  6
CONTINUOUS
 10
221.2763824462890909
 20
17.9333190917968786
 30
0.0
 11
221.3502044677734091
 21
17.9333190917968786
 31
0.0
  0
LINE
  5
61A
100
AcDbEntity
100
AcDbLine
  8
CADDY_2
 62
256
370
-1
  6
CONTINUOUS
 10
221.7194519042969034
 20
17.9333190917968786
 30
0.0
 11
221.7932891845703125
 21
17.9333190917968786
 31
0.0
  0
LINE
  5
61B
100
AcDbEntity
100
AcDbLine
  8
CADDY_2
 62
256
370
-1
  6
CONTINUOUS
 10
205.0307312011719034
 20
17.9698944091796911
 30
0.0
 11
205.1045837402344034
 21
17.9698944091796911
 31
0.0
  0
LINE
  5
61C
100
AcDbEntity
100
AcDbLine
  8
CADDY_2
 62
256
370
-1
  6
CONTINUOUS
 10
205.4368591308594034
 20
17.9698944091796911
 30
0.0
 11
205.4738006591796875
 21
17.9698944091796911
 31
0.0
  0
LINE
  5
61D
100
AcDbEntity
100
AcDbLine
  8
CADDY_2
 62
256
370
-1
  6
CONTINUOUS
 10
205.6953125
 20
17.9698944091796911
 30
0.0
 11
205.7691650390625
 21
17.9698944091796911
 31
0.0
  0
LINE
  5
61E
100
AcDbEntity
100
AcDbLine
  8
CADDY_2
 62
256
370
-1
  6
CONTINUOUS
 10
206.322998046875
 20
17.9698944091796911
 30
0.0
 11
206.3968353271484091
 21
17.9698944091796911
 31
0.0
  0
LINE
  5
61F
100
AcDbEntity
100
AcDbLine
  8
CADDY_2
 62
256
370
-1
  6
CONTINUOUS
 10
206.7291412353515909
 20
17.9698944091796911
 30
0.0
 11
206.7660675048828125
 21
17.9698944091796911
 31
0.0
  0
LINE
  5
620
100
AcDbEntity
100
AcDbLine
  8
CADDY_2
 62
256
370
-1
  6
CONTINUOUS
 10
206.9875793457030966
 20
17.9698944091796911
 30
0.0
 11
207.0614318847655966
 21
17.9698944091796911
 31
0.0
  0
LINE
  5
621
100
AcDbEntity
100
AcDbLine
  8
CADDY_2
 62
256
370
-1
  6
CONTINUOUS
 10
207.2829742431640909
 20
17.9698944091796911
 30
0.0
 11
207.3568115234375
 21
17.9698944091796911
 31
0.0
  0
LINE
  5
622
100
AcDbEntity
100
AcDbLine
  8
CADDY_2
 62
256
370
-1
  6
CONTINUOUS
 10
207.5783386230469034
 20
17.9698944091796911
 30
0.0
 11
207.6152496337890909
 21
17.9698944091796911
 31
0.0
  0
LINE
  5
623
100
AcDbEntity
100
AcDbLine
  8
CADDY_2
 62
256
370
-1
  6
CONTINUOUS
 10
207.8737030029296875
 20
17.9698944091796911
 30
0.0
 11
207.9475555419921875
 21
17.9698944091796911
 31
0.0
  0
LINE
  5
624
100
AcDbEntity
100
AcDbLine
  8
CADDY_2
 62
256
370
-1
  6
CONTINUOUS
 10
208.2060089111328125
 20
17.9698944091796911
 30
0.0
 11
208.2798461914061932
 21
17.9698944091796911
 31
0.0
  0
LINE
  5
625
100
AcDbEntity
100
AcDbLine
  8
CADDY_2
 62
256
370
-1
  6
CONTINUOUS
 10
208.4644775390625
 20
17.9698944091796911
 30
0.0
 11
208.5382995605469034
 21
17.9698944091796911
 31
0.0
  0
LINE
  5
626
100
AcDbEntity
100
AcDbLine
  8
CADDY_2
 62
256
370
-1
  6
CONTINUOUS
 10
208.7967681884765909
 20
17.9698944091796911
 30
0.0
 11
208.9075317382811932
 21
17.9698944091796911
 31
0.0
  0
LINE
  5
627
100
AcDbEntity
100
AcDbLine
  8
CADDY_2
 62
256
370
-1
  6
CONTINUOUS
 10
209.0921630859375
 20
17.9698944091796911
 30
0.0
 11
209.2028961181640909
 21
17.9698944091796911
 31
0.0
  0
LINE
  5
628
100
AcDbEntity
100
AcDbLine
  8
CADDY_2
 62
256
370
-1
  6
CONTINUOUS
 10
209.5721435546875
 20
17.9698944091796911
 30
0.0
 11
209.6828765869140909
 21
17.9698944091796911
 31
0.0
  0
LINE
  5
629
100
AcDbEntity
100
AcDbLine
  8
CADDY_2
 62
256
370
-1
  6
CONTINUOUS
 10
209.9413452148438068
 20
17.9698944091796911
 30
0.0
 11
210.0890502929688068
 21
17.9698944091796911
 31
0.0
  0
LINE
  5
62A
100
AcDbEntity
100
AcDbLine
  8
CADDY_2
 62
256
370
-1
  6
CONTINUOUS
 10
210.4213409423828125
 20
17.9698944091796911
 30
0.0
 11
210.5690307617188068
 21
17.9698944091796911
 31
0.0
  0
LINE
  5
62B
100
AcDbEntity
100
AcDbLine
  8
CADDY_2
 62
256
370
-1
  6
CONTINUOUS
 10
211.0120849609375
 20
17.9698944091796911
 30
0.0
 11
211.1597595214844034
 21
17.9698944091796911
 31
0.0
  0
LINE
  5
62C
100
AcDbEntity
100
AcDbLine
  8
CADDY_2
 62
256
370
-1
  6
CONTINUOUS
 10
211.56591796875
 20
17.9698944091796911
 30
0.0
 11
211.6397705078125
 21
17.9698944091796911
 31
0.0
  0
LINE
  5
62D
100
AcDbEntity
100
AcDbLine
  8
CADDY_2
 62
256
370
-1
  6
CONTINUOUS
 10
211.8243713378905966
 20
17.9698944091796911
 30
0.0
 11
211.8982238769530966
 21
17.9698944091796911
 31
0.0
  0
LINE
  5
62E
100
AcDbEntity
100
AcDbLine
  8
CADDY_2
 62
256
370
-1
  6
CONTINUOUS
 10
212.1566772460938068
 20
17.9698944091796911
 30
0.0
 11
212.2674407958984091
 21
17.9698944091796911
 31
0.0
  0
LINE
  5
62F
100
AcDbEntity
100
AcDbLine
  8
CADDY_2
 62
256
370
-1
  6
CONTINUOUS
 10
212.6366577148438068
 20
17.9698944091796911
 30
0.0
 11
212.7104949951171875
 21
17.9698944091796911
 31
0.0
  0
LINE
  5
630
100
AcDbEntity
100
AcDbLine
  8
CADDY_2
 62
256
370
-1
  6
CONTINUOUS
 10
212.8950958251953125
 20
17.9698944091796911
 30
0.0
 11
212.9689483642578125
 21
17.9698944091796911
 31
0.0
  0
LINE
  5
631
100
AcDbEntity
100
AcDbLine
  8
CADDY_2
 62
256
370
-1
  6
CONTINUOUS
 10
213.3381652832030966
 20
17.9698944091796911
 30
0.0
 11
213.4120178222655966
 21
17.9698944091796911
 31
0.0
  0
LINE
  5
632
100
AcDbEntity
100
AcDbLine
  8
CADDY_2
 62
256
370
-1
  6
CONTINUOUS
 10
213.7443237304688068
 20
17.9698944091796911
 30
0.0
 11
213.8181457519530966
 21
17.9698944091796911
 31
0.0
  0
LINE
  5
633
100
AcDbEntity
100
AcDbLine
  8
CADDY_2
 62
256
370
-1
  6
CONTINUOUS
 10
214.113525390625
 20
17.9698944091796911
 30
0.0
 11
214.2981262207030966
 21
17.9698944091796911
 31
0.0
  0
LINE
  5
634
100
AcDbEntity
100
AcDbLine
  8
CADDY_2
 62
256
370
-1
  6
CONTINUOUS
 10
214.5934906005859091
 20
17.9698944091796911
 30
0.0
 11
214.6304168701171875
 21
17.9698944091796911
 31
0.0
  0
LINE
  5
635
100
AcDbEntity
100
AcDbLine
  8
CADDY_2
 62
256
370
-1
  6
CONTINUOUS
 10
214.9257965087890909
 20
17.9698944091796911
 30
0.0
 11
214.9996643066405966
 21
17.9698944091796911
 31
0.0
  0
LINE
  5
636
100
AcDbEntity
100
AcDbLine
  8
CADDY_2
 62
256
370
-1
  6
CONTINUOUS
 10
215.3319702148438068
 20
17.9698944091796911
 30
0.0
 11
215.3688659667969034
 21
17.9698944091796911
 31
0.0
  0
LINE
  5
637
100
AcDbEntity
100
AcDbLine
  8
CADDY_2
 62
256
370
-1
  6
CONTINUOUS
 10
215.553466796875
 20
17.9698944091796911
 30
0.0
 11
215.7380828857421875
 21
17.9698944091796911
 31
0.0
  0
LINE
  5
638
100
AcDbEntity
100
AcDbLine
  8
CADDY_2
 62
256
370
-1
  6
CONTINUOUS
 10
216.0334625244140909
 20
17.9698944091796911
 30
0.0
 11
216.0703735351561932
 21
17.9698944091796911
 31
0.0
  0
LINE
  5
639
100
AcDbEntity
100
AcDbLine
  8
CADDY_2
 62
256
370
-1
  6
CONTINUOUS
 10
216.3657684326171875
 20
17.9698944091796911
 30
0.0
 11
216.4396209716796875
 21
17.9698944091796911
 31
0.0
  0
LINE
  5
63A
100
AcDbEntity
100
AcDbLine
  8
CADDY_2
 62
256
370
-1
  6
CONTINUOUS
 10
216.6611328125
 20
17.9698944091796911
 30
0.0
 11
216.7718963623046875
 21
17.9698944091796911
 31
0.0
  0
LINE
  5
63B
100
AcDbEntity
100
AcDbLine
  8
CADDY_2
 62
256
370
-1
  6
CONTINUOUS
 10
217.1780395507811932
 20
17.9698944091796911
 30
0.0
 11
217.3257293701171875
 21
17.9698944091796911
 31
0.0
  0
LINE
  5
63C
100
AcDbEntity
100
AcDbLine
  8
CADDY_2
 62
256
370
-1
  6
CONTINUOUS
 10
217.8057098388671875
 20
17.9698944091796911
 30
0.0
 11
217.8795776367188068
 21
17.9698944091796911
 31
0.0
  0
LINE
  5
63D
100
AcDbEntity
100
AcDbLine
  8
CADDY_2
 62
256
370
-1
  6
CONTINUOUS
 10
218.248779296875
 20
17.9698944091796911
 30
0.0
 11
218.2857055664061932
 21
17.9698944091796911
 31
0.0
  0
LINE
  5
63E
100
AcDbEntity
100
AcDbLine
  8
CADDY_2
 62
256
370
-1
  6
CONTINUOUS
 10
218.8395385742188068
 20
17.9698944091796911
 30
0.0
 11
218.9502868652344034
 21
17.9698944091796911
 31
0.0
  0
LINE
  5
63F
100
AcDbEntity
100
AcDbLine
  8
CADDY_2
 62
256
370
-1
  6
CONTINUOUS
 10
219.2825775146484091
 20
17.9698944091796911
 30
0.0
 11
219.3564453125
 21
17.9698944091796911
 31
0.0
  0
LINE
  5
640
100
AcDbEntity
100
AcDbLine
  8
CADDY_2
 62
256
370
-1
  6
CONTINUOUS
 10
219.6148986816405966
 20
17.9698944091796911
 30
0.0
 11
219.7625732421875
 21
17.9698944091796911
 31
0.0
  0
LINE
  5
641
100
AcDbEntity
100
AcDbLine
  8
CADDY_2
 62
256
370
-1
  6
CONTINUOUS
 10
220.0949096679688068
 20
17.9698944091796911
 30
0.0
 11
220.2425384521484091
 21
17.9698944091796911
 31
0.0
  0
LINE
  5
642
100
AcDbEntity
100
AcDbLine
  8
CADDY_2
 62
256
370
-1
  6
CONTINUOUS
 10
220.5748596191405966
 20
17.9698944091796911
 30
0.0
 11
220.6487121582030966
 21
17.9698944091796911
 31
0.0
  0
LINE
  5
643
100
AcDbEntity
100
AcDbLine
  8
CADDY_2
 62
256
370
-1
  6
CONTINUOUS
 10
220.8702239990234091
 20
17.9698944091796911
 30
0.0
 11
220.9810028076171875
 21
17.9698944091796911
 31
0.0
  0
LINE
  5
644
100
AcDbEntity
100
AcDbLine
  8
CADDY_2
 62
256
370
-1
  6
CONTINUOUS
 10
221.2763824462890909
 20
17.9698944091796911
 30
0.0
 11
221.3502044677734091
 21
17.9698944091796911
 31
0.0
  0
LINE
  5
645
100
AcDbEntity
100
AcDbLine
  8
CADDY_2
 62
256
370
-1
  6
CONTINUOUS
 10
221.7194519042969034
 20
17.9698944091796911
 30
0.0
 11
221.7932891845703125
 21
17.9698944091796911
 31
0.0
  0
LINE
  5
646
100
AcDbEntity
100
AcDbLine
  8
CADDY_2
 62
256
370
-1
  6
CONTINUOUS
 10
205.0307312011719034
 20
18.0064697265625
 30
0.0
 11
205.1045837402344034
 21
18.0064697265625
 31
0.0
  0
LINE
  5
647
100
AcDbEntity
100
AcDbLine
  8
CADDY_2
 62
256
370
-1
  6
CONTINUOUS
 10
205.3999328613280966
 20
18.0064697265625
 30
0.0
 11
205.4738006591796875
 21
18.0064697265625
 31
0.0
  0
LINE
  5
648
100
AcDbEntity
100
AcDbLine
  8
CADDY_2
 62
256
370
-1
  6
CONTINUOUS
 10
205.6953125
 20
18.0064697265625
 30
0.0
 11
205.7691650390625
 21
18.0064697265625
 31
0.0
  0
LINE
  5
649
100
AcDbEntity
100
AcDbLine
  8
CADDY_2
 62
256
370
-1
  6
CONTINUOUS
 10
206.322998046875
 20
18.0064697265625
 30
0.0
 11
206.3968353271484091
 21
18.0064697265625
 31
0.0
  0
LINE
  5
64A
100
AcDbEntity
100
AcDbLine
  8
CADDY_2
 62
256
370
-1
  6
CONTINUOUS
 10
206.6922302246094034
 20
18.0064697265625
 30
0.0
 11
206.7660675048828125
 21
18.0064697265625
 31
0.0
  0
LINE
  5
64B
100
AcDbEntity
100
AcDbLine
  8
CADDY_2
 62
256
370
-1
  6
CONTINUOUS
 10
206.9875793457030966
 20
18.0064697265625
 30
0.0
 11
207.0983734130859091
 21
18.0064697265625
 31
0.0
  0
LINE
  5
64C
100
AcDbEntity
100
AcDbLine
  8
CADDY_2
 62
256
370
-1
  6
CONTINUOUS
 10
207.3568115234375
 20
18.0064697265625
 30
0.0
 11
207.3937377929688068
 21
18.0064697265625
 31
0.0
  0
LINE
  5
64D
100
AcDbEntity
100
AcDbLine
  8
CADDY_2
 62
256
370
-1
  6
CONTINUOUS
 10
207.6152496337890909
 20
18.0064697265625
 30
0.0
 11
207.6522064208984091
 21
18.0064697265625
 31
0.0
  0
LINE
  5
64E
100
AcDbEntity
100
AcDbLine
  8
CADDY_2
 62
256
370
-1
  6
CONTINUOUS
 10
207.8737030029296875
 20
18.0064697265625
 30
0.0
 11
207.9475555419921875
 21
18.0064697265625
 31
0.0
  0
LINE
  5
64F
100
AcDbEntity
100
AcDbLine
  8
CADDY_2
 62
256
370
-1
  6
CONTINUOUS
 10
208.2060089111328125
 20
18.0064697265625
 30
0.0
 11
208.2798461914061932
 21
18.0064697265625
 31
0.0
  0
LINE
  5
650
100
AcDbEntity
100
AcDbLine
  8
CADDY_2
 62
256
370
-1
  6
CONTINUOUS
 10
208.4644775390625
 20
18.0064697265625
 30
0.0
 11
208.5382995605469034
 21
18.0064697265625
 31
0.0
  0
LINE
  5
651
100
AcDbEntity
100
AcDbLine
  8
CADDY_2
 62
256
370
-1
  6
CONTINUOUS
 10
208.7598724365234091
 20
18.0064697265625
 30
0.0
 11
208.9075317382811932
 21
18.0064697265625
 31
0.0
  0
LINE
  5
652
100
AcDbEntity
100
AcDbLine
  8
CADDY_2
 62
256
370
-1
  6
CONTINUOUS
 10
209.1659698486328125
 20
18.0064697265625
 30
0.0
 11
209.2398376464844034
 21
18.0064697265625
 31
0.0
  0
LINE
  5
653
100
AcDbEntity
100
AcDbLine
  8
CADDY_2
 62
256
370
-1
  6
CONTINUOUS
 10
209.5721435546875
 20
18.0064697265625
 30
0.0
 11
209.6459808349609091
 21
18.0064697265625
 31
0.0
  0
LINE
  5
654
100
AcDbEntity
100
AcDbLine
  8
CADDY_2
 62
256
370
-1
  6
CONTINUOUS
 10
209.9413452148438068
 20
18.0064697265625
 30
0.0
 11
210.0890502929688068
 21
18.0064697265625
 31
0.0
  0
LINE
  5
655
100
AcDbEntity
100
AcDbLine
  8
CADDY_2
 62
256
370
-1
  6
CONTINUOUS
 10
210.458251953125
 20
18.0064697265625
 30
0.0
 11
210.5690307617188068
 21
18.0064697265625
 31
0.0
  0
LINE
  5
656
100
AcDbEntity
100
AcDbLine
  8
CADDY_2
 62
256
370
-1
  6
CONTINUOUS
 10
211.0490112304688068
 20
18.0064697265625
 30
0.0
 11
211.1597595214844034
 21
18.0064697265625
 31
0.0
  0
LINE
  5
657
100
AcDbEntity
100
AcDbLine
  8
CADDY_2
 62
256
370
-1
  6
CONTINUOUS
 10
211.6028137207030966
 20
18.0064697265625
 30
0.0
 11
211.6766815185546875
 21
18.0064697265625
 31
0.0
  0
LINE
  5
658
100
AcDbEntity
100
AcDbLine
  8
CADDY_2
 62
256
370
-1
  6
CONTINUOUS
 10
211.8243713378905966
 20
18.0064697265625
 30
0.0
 11
211.8982238769530966
 21
18.0064697265625
 31
0.0
  0
LINE
  5
659
100
AcDbEntity
100
AcDbLine
  8
CADDY_2
 62
256
370
-1
  6
CONTINUOUS
 10
212.1935882568359091
 20
18.0064697265625
 30
0.0
 11
212.3043518066405966
 21
18.0064697265625
 31
0.0
  0
LINE
  5
65A
100
AcDbEntity
100
AcDbLine
  8
CADDY_2
 62
256
370
-1
  6
CONTINUOUS
 10
212.5997467041015909
 20
18.0064697265625
 30
0.0
 11
212.7104949951171875
 21
18.0064697265625
 31
0.0
  0
LINE
  5
65B
100
AcDbEntity
100
AcDbLine
  8
CADDY_2
 62
256
370
-1
  6
CONTINUOUS
 10
212.8950958251953125
 20
18.0064697265625
 30
0.0
 11
212.9689483642578125
 21
18.0064697265625
 31
0.0
  0
LINE
  5
65C
100
AcDbEntity
100
AcDbLine
  8
CADDY_2
 62
256
370
-1
  6
CONTINUOUS
 10
213.3381652832030966
 20
18.0064697265625
 30
0.0
 11
213.4120178222655966
 21
18.0064697265625
 31
0.0
  0
LINE
  5
65D
100
AcDbEntity
100
AcDbLine
  8
CADDY_2
 62
256
370
-1
  6
CONTINUOUS
 10
213.7443237304688068
 20
18.0064697265625
 30
0.0
 11
213.8181457519530966
 21
18.0064697265625
 31
0.0
  0
LINE
  5
65E
100
AcDbEntity
100
AcDbLine
  8
CADDY_2
 62
256
370
-1
  6
CONTINUOUS
 10
214.113525390625
 20
18.0064697265625
 30
0.0
 11
214.2981262207030966
 21
18.0064697265625
 31
0.0
  0
LINE
  5
65F
100
AcDbEntity
100
AcDbLine
  8
CADDY_2
 62
256
370
-1
  6
CONTINUOUS
 10
214.5934906005859091
 20
18.0064697265625
 30
0.0
 11
214.6304168701171875
 21
18.0064697265625
 31
0.0
  0
LINE
  5
660
100
AcDbEntity
100
AcDbLine
  8
CADDY_2
 62
256
370
-1
  6
CONTINUOUS
 10
214.9257965087890909
 20
18.0064697265625
 30
0.0
 11
214.9996643066405966
 21
18.0064697265625
 31
0.0
  0
LINE
  5
661
100
AcDbEntity
100
AcDbLine
  8
CADDY_2
 62
256
370
-1
  6
CONTINUOUS
 10
215.2949981689453125
 20
18.0064697265625
 30
0.0
 11
215.3688659667969034
 21
18.0064697265625
 31
0.0
  0
LINE
  5
662
100
AcDbEntity
100
AcDbLine
  8
CADDY_2
 62
256
370
-1
  6
CONTINUOUS
 10
215.553466796875
 20
18.0064697265625
 30
0.0
 11
215.7380828857421875
 21
18.0064697265625
 31
0.0
  0
LINE
  5
663
100
AcDbEntity
100
AcDbLine
  8
CADDY_2
 62
256
370
-1
  6
CONTINUOUS
 10
216.0334625244140909
 20
18.0064697265625
 30
0.0
 11
216.0703735351561932
 21
18.0064697265625
 31
0.0
  0
LINE
  5
664
100
AcDbEntity
100
AcDbLine
  8
CADDY_2
 62
256
370
-1
  6
CONTINUOUS
 10
216.3657684326171875
 20
18.0064697265625
 30
0.0
 11
216.4396209716796875
 21
18.0064697265625
 31
0.0
  0
LINE
  5
665
100
AcDbEntity
100
AcDbLine
  8
CADDY_2
 62
256
370
-1
  6
CONTINUOUS
 10
216.6611328125
 20
18.0064697265625
 30
0.0
 11
216.7718963623046875
 21
18.0064697265625
 31
0.0
  0
LINE
  5
666
100
AcDbEntity
100
AcDbLine
  8
CADDY_2
 62
256
370
-1
  6
CONTINUOUS
 10
217.2149353027344034
 20
18.0064697265625
 30
0.0
 11
217.3257293701171875
 21
18.0064697265625
 31
0.0
  0
LINE
  5
667
100
AcDbEntity
100
AcDbLine
  8
CADDY_2
 62
256
370
-1
  6
CONTINUOUS
 10
217.8057098388671875
 20
18.0064697265625
 30
0.0
 11
217.8795776367188068
 21
18.0064697265625
 31
0.0
  0
LINE
  5
668
100
AcDbEntity
100
AcDbLine
  8
CADDY_2
 62
256
370
-1
  6
CONTINUOUS
 10
218.248779296875
 20
18.0064697265625
 30
0.0
 11
218.2857055664061932
 21
18.0064697265625
 31
0.0
  0
LINE
  5
669
100
AcDbEntity
100
AcDbLine
  8
CADDY_2
 62
256
370
-1
  6
CONTINUOUS
 10
218.87646484375
 20
18.0064697265625
 30
0.0
 11
218.9872131347655966
 21
18.0064697265625
 31
0.0
  0
LINE
  5
66A
100
AcDbEntity
100
AcDbLine
  8
CADDY_2
 62
256
370
-1
  6
CONTINUOUS
 10
219.2456665039061932
 20
18.0064697265625
 30
0.0
 11
219.3564453125
 21
18.0064697265625
 31
0.0
  0
LINE
  5
66B
100
AcDbEntity
100
AcDbLine
  8
CADDY_2
 62
256
370
-1
  6
CONTINUOUS
 10
219.6148986816405966
 20
18.0064697265625
 30
0.0
 11
219.7625732421875
 21
18.0064697265625
 31
0.0
  0
LINE
  5
66C
100
AcDbEntity
100
AcDbLine
  8
CADDY_2
 62
256
370
-1
  6
CONTINUOUS
 10
220.1318054199219034
 20
18.0064697265625
 30
0.0
 11
220.2425384521484091
 21
18.0064697265625
 31
0.0
  0
LINE
  5
66D
100
AcDbEntity
100
AcDbLine
  8
CADDY_2
 62
256
370
-1
  6
CONTINUOUS
 10
220.5748596191405966
 20
18.0064697265625
 30
0.0
 11
220.6487121582030966
 21
18.0064697265625
 31
0.0
  0
LINE
  5
66E
100
AcDbEntity
100
AcDbLine
  8
CADDY_2
 62
256
370
-1
  6
CONTINUOUS
 10
220.8702239990234091
 20
18.0064697265625
 30
0.0
 11
220.9810028076171875
 21
18.0064697265625
 31
0.0
  0
LINE
  5
66F
100
AcDbEntity
100
AcDbLine
  8
CADDY_2
 62
256
370
-1
  6
CONTINUOUS
 10
221.2763824462890909
 20
18.0064697265625
 30
0.0
 11
221.3502044677734091
 21
18.0064697265625
 31
0.0
  0
LINE
  5
670
100
AcDbEntity
100
AcDbLine
  8
CADDY_2
 62
256
370
-1
  6
CONTINUOUS
 10
221.7194519042969034
 20
18.0064697265625
 30
0.0
 11
221.7932891845703125
 21
18.0064697265625
 31
0.0
  0
LINE
  5
671
100
AcDbEntity
100
AcDbLine
  8
CADDY_2
 62
256
370
-1
  6
CONTINUOUS
 10
205.0307312011719034
 20
18.0430603027343786
 30
0.0
 11
205.1415100097655966
 21
18.0430603027343786
 31
0.0
  0
LINE
  5
672
100
AcDbEntity
100
AcDbLine
  8
CADDY_2
 62
256
370
-1
  6
CONTINUOUS
 10
205.3630218505859091
 20
18.0430603027343786
 30
0.0
 11
205.4738006591796875
 21
18.0430603027343786
 31
0.0
  0
LINE
  5
673
100
AcDbEntity
100
AcDbLine
  8
CADDY_2
 62
256
370
-1
  6
CONTINUOUS
 10
205.6953125
 20
18.0430603027343786
 30
0.0
 11
205.8430023193359091
 21
18.0430603027343786
 31
0.0
  0
LINE
  5
674
100
AcDbEntity
100
AcDbLine
  8
CADDY_2
 62
256
370
-1
  6
CONTINUOUS
 10
206.322998046875
 20
18.0430603027343786
 30
0.0
 11
206.4337768554688068
 21
18.0430603027343786
 31
0.0
  0
LINE
  5
675
100
AcDbEntity
100
AcDbLine
  8
CADDY_2
 62
256
370
-1
  6
CONTINUOUS
 10
206.6552734375
 20
18.0430603027343786
 30
0.0
 11
206.7660675048828125
 21
18.0430603027343786
 31
0.0
  0
LINE
  5
676
100
AcDbEntity
100
AcDbLine
  8
CADDY_2
 62
256
370
-1
  6
CONTINUOUS
 10
206.9875793457030966
 20
18.0430603027343786
 30
0.0
 11
207.1352691650390909
 21
18.0430603027343786
 31
0.0
  0
LINE
  5
677
100
AcDbEntity
100
AcDbLine
  8
CADDY_2
 62
256
370
-1
  6
CONTINUOUS
 10
207.3568115234375
 20
18.0430603027343786
 30
0.0
 11
207.4306488037109091
 21
18.0430603027343786
 31
0.0
  0
LINE
  5
678
100
AcDbEntity
100
AcDbLine
  8
CADDY_2
 62
256
370
-1
  6
CONTINUOUS
 10
207.6152496337890909
 20
18.0430603027343786
 30
0.0
 11
207.7260284423828125
 21
18.0430603027343786
 31
0.0
  0
LINE
  5
679
100
AcDbEntity
100
AcDbLine
  8
CADDY_2
 62
256
370
-1
  6
CONTINUOUS
 10
207.9106292724609091
 20
18.0430603027343786
 30
0.0
 11
207.9844970703125
 21
18.0430603027343786
 31
0.0
  0
LINE
  5
67A
100
AcDbEntity
100
AcDbLine
  8
CADDY_2
 62
256
370
-1
  6
CONTINUOUS
 10
208.1690979003905966
 20
18.0430603027343786
 30
0.0
 11
208.2798461914061932
 21
18.0430603027343786
 31
0.0
  0
LINE
  5
67B
100
AcDbEntity
100
AcDbLine
  8
CADDY_2
 62
256
370
-1
  6
CONTINUOUS
 10
208.4644775390625
 20
18.0430603027343786
 30
0.0
 11
208.5752105712890909
 21
18.0430603027343786
 31
0.0
  0
LINE
  5
67C
100
AcDbEntity
100
AcDbLine
  8
CADDY_2
 62
256
370
-1
  6
CONTINUOUS
 10
208.722900390625
 20
18.0430603027343786
 30
0.0
 11
208.87060546875
 21
18.0430603027343786
 31
0.0
  0
LINE
  5
67D
100
AcDbEntity
100
AcDbLine
  8
CADDY_2
 62
256
370
-1
  6
CONTINUOUS
 10
209.2028961181640909
 20
18.0430603027343786
 30
0.0
 11
209.3136749267578125
 21
18.0430603027343786
 31
0.0
  0
LINE
  5
67E
100
AcDbEntity
100
AcDbLine
  8
CADDY_2
 62
256
370
-1
  6
CONTINUOUS
 10
209.4982757568359091
 20
18.0430603027343786
 30
0.0
 11
209.6090545654296875
 21
18.0430603027343786
 31
0.0
  0
LINE
  5
67F
100
AcDbEntity
100
AcDbLine
  8
CADDY_2
 62
256
370
-1
  6
CONTINUOUS
 10
209.9413452148438068
 20
18.0430603027343786
 30
0.0
 11
210.0890502929688068
 21
18.0430603027343786
 31
0.0
  0
LINE
  5
680
100
AcDbEntity
100
AcDbLine
  8
CADDY_2
 62
256
370
-1
  6
CONTINUOUS
 10
210.458251953125
 20
18.0430603027343786
 30
0.0
 11
210.6428527832030966
 21
18.0430603027343786
 31
0.0
  0
LINE
  5
681
100
AcDbEntity
100
AcDbLine
  8
CADDY_2
 62
256
370
-1
  6
CONTINUOUS
 10
211.0859222412109091
 20
18.0430603027343786
 30
0.0
 11
211.1597595214844034
 21
18.0430603027343786
 31
0.0
  0
LINE
  5
682
100
AcDbEntity
100
AcDbLine
  8
CADDY_2
 62
256
370
-1
  6
CONTINUOUS
 10
211.6397705078125
 20
18.0430603027343786
 30
0.0
 11
211.7135925292969034
 21
18.0430603027343786
 31
0.0
  0
LINE
  5
683
100
AcDbEntity
100
AcDbLine
  8
CADDY_2
 62
256
370
-1
  6
CONTINUOUS
 10
211.8243713378905966
 20
18.0430603027343786
 30
0.0
 11
211.9351196289061932
 21
18.0430603027343786
 31
0.0
  0
LINE
  5
684
100
AcDbEntity
100
AcDbLine
  8
CADDY_2
 62
256
370
-1
  6
CONTINUOUS
 10
212.2674407958984091
 20
18.0430603027343786
 30
0.0
 11
212.3781890869140909
 21
18.0430603027343786
 31
0.0
  0
LINE
  5
685
100
AcDbEntity
100
AcDbLine
  8
CADDY_2
 62
256
370
-1
  6
CONTINUOUS
 10
212.5627899169921875
 20
18.0430603027343786
 30
0.0
 11
212.7473907470703125
 21
18.0430603027343786
 31
0.0
  0
LINE
  5
686
100
AcDbEntity
100
AcDbLine
  8
CADDY_2
 62
256
370
-1
  6
CONTINUOUS
 10
212.8950958251953125
 20
18.0430603027343786
 30
0.0
 11
213.0427856445311932
 21
18.0430603027343786
 31
0.0
  0
LINE
  5
687
100
AcDbEntity
100
AcDbLine
  8
CADDY_2
 62
256
370
-1
  6
CONTINUOUS
 10
213.3381652832030966
 20
18.0430603027343786
 30
0.0
 11
213.48583984375
 21
18.0430603027343786
 31
0.0
  0
LINE
  5
688
100
AcDbEntity
100
AcDbLine
  8
CADDY_2
 62
256
370
-1
  6
CONTINUOUS
 10
213.7443237304688068
 20
18.0430603027343786
 30
0.0
 11
213.8919982910155966
 21
18.0430603027343786
 31
0.0
  0
LINE
  5
689
100
AcDbEntity
100
AcDbLine
  8
CADDY_2
 62
256
370
-1
  6
CONTINUOUS
 10
214.113525390625
 20
18.0430603027343786
 30
0.0
 11
214.2612152099609091
 21
18.0430603027343786
 31
0.0
  0
LINE
  5
68A
100
AcDbEntity
100
AcDbLine
  8
CADDY_2
 62
256
370
-1
  6
CONTINUOUS
 10
214.5934906005859091
 20
18.0430603027343786
 30
0.0
 11
214.7042999267578125
 21
18.0430603027343786
 31
0.0
  0
LINE
  5
68B
100
AcDbEntity
100
AcDbLine
  8
CADDY_2
 62
256
370
-1
  6
CONTINUOUS
 10
214.9257965087890909
 20
18.0430603027343786
 30
0.0
 11
215.0365905761719034
 21
18.0430603027343786
 31
0.0
  0
LINE
  5
68C
100
AcDbEntity
100
AcDbLine
  8
CADDY_2
 62
256
370
-1
  6
CONTINUOUS
 10
215.2581024169921875
 20
18.0430603027343786
 30
0.0
 11
215.3688659667969034
 21
18.0430603027343786
 31
0.0
  0
LINE
  5
68D
100
AcDbEntity
100
AcDbLine
  8
CADDY_2
 62
256
370
-1
  6
CONTINUOUS
 10
215.553466796875
 20
18.0430603027343786
 30
0.0
 11
215.701171875
 21
18.0430603027343786
 31
0.0
  0
LINE
  5
68E
100
AcDbEntity
100
AcDbLine
  8
CADDY_2
 62
256
370
-1
  6
CONTINUOUS
 10
216.0334625244140909
 20
18.0430603027343786
 30
0.0
 11
216.1442413330078125
 21
18.0430603027343786
 31
0.0
  0
LINE
  5
68F
100
AcDbEntity
100
AcDbLine
  8
CADDY_2
 62
256
370
-1
  6
CONTINUOUS
 10
216.3657684326171875
 20
18.0430603027343786
 30
0.0
 11
216.4765319824219034
 21
18.0430603027343786
 31
0.0
  0
LINE
  5
690
100
AcDbEntity
100
AcDbLine
  8
CADDY_2
 62
256
370
-1
  6
CONTINUOUS
 10
216.6242370605469034
 20
18.0430603027343786
 30
0.0
 11
216.7718963623046875
 21
18.0430603027343786
 31
0.0
  0
LINE
  5
691
100
AcDbEntity
100
AcDbLine
  8
CADDY_2
 62
256
370
-1
  6
CONTINUOUS
 10
217.2518920898438068
 20
18.0430603027343786
 30
0.0
 11
217.3257293701171875
 21
18.0430603027343786
 31
0.0
  0
LINE
  5
692
100
AcDbEntity
100
AcDbLine
  8
CADDY_2
 62
256
370
-1
  6
CONTINUOUS
 10
217.8057098388671875
 20
18.0430603027343786
 30
0.0
 11
217.9534149169921875
 21
18.0430603027343786
 31
0.0
  0
LINE
  5
693
100
AcDbEntity
100
AcDbLine
  8
CADDY_2
 62
256
370
-1
  6
CONTINUOUS
 10
218.248779296875
 20
18.0430603027343786
 30
0.0
 11
218.3595581054688068
 21
18.0430603027343786
 31
0.0
  0
LINE
  5
694
100
AcDbEntity
100
AcDbLine
  8
CADDY_2
 62
256
370
-1
  6
CONTINUOUS
 10
218.9502868652344034
 20
18.0430603027343786
 30
0.0
 11
219.0610656738280966
 21
18.0430603027343786
 31
0.0
  0
LINE
  5
695
100
AcDbEntity
100
AcDbLine
  8
CADDY_2
 62
256
370
-1
  6
CONTINUOUS
 10
219.208740234375
 20
18.0430603027343786
 30
0.0
 11
219.3933410644530966
 21
18.0430603027343786
 31
0.0
  0
LINE
  5
696
100
AcDbEntity
100
AcDbLine
  8
CADDY_2
 62
256
370
-1
  6
CONTINUOUS
 10
219.6148986816405966
 20
18.0430603027343786
 30
0.0
 11
219.7625732421875
 21
18.0430603027343786
 31
0.0
  0
LINE
  5
697
100
AcDbEntity
100
AcDbLine
  8
CADDY_2
 62
256
370
-1
  6
CONTINUOUS
 10
220.1318054199219034
 20
18.0430603027343786
 30
0.0
 11
220.31640625
 21
18.0430603027343786
 31
0.0
  0
LINE
  5
698
100
AcDbEntity
100
AcDbLine
  8
CADDY_2
 62
256
370
-1
  6
CONTINUOUS
 10
220.5748596191405966
 20
18.0430603027343786
 30
0.0
 11
220.6856231689453125
 21
18.0430603027343786
 31
0.0
  0
LINE
  5
699
100
AcDbEntity
100
AcDbLine
  8
CADDY_2
 62
256
370
-1
  6
CONTINUOUS
 10
220.8333129882811932
 20
18.0430603027343786
 30
0.0
 11
220.9810028076171875
 21
18.0430603027343786
 31
0.0
  0
LINE
  5
69A
100
AcDbEntity
100
AcDbLine
  8
CADDY_2
 62
256
370
-1
  6
CONTINUOUS
 10
221.2763824462890909
 20
18.0430603027343786
 30
0.0
 11
221.424072265625
 21
18.0430603027343786
 31
0.0
  0
LINE
  5
69B
100
AcDbEntity
100
AcDbLine
  8
CADDY_2
 62
256
370
-1
  6
CONTINUOUS
 10
221.7194519042969034
 20
18.0430603027343786
 30
0.0
 11
221.8671417236328125
 21
18.0430603027343786
 31
0.0
  0
LINE
  5
69C
100
AcDbEntity
100
AcDbLine
  8
CADDY_2
 62
256
370
-1
  6
CONTINUOUS
 10
204.9569091796875
 20
18.0796356201171911
 30
0.0
 11
205.4738006591796875
 21
18.0796356201171911
 31
0.0
  0
LINE
  5
69D
100
AcDbEntity
100
AcDbLine
  8
CADDY_2
 62
256
370
-1
  6
CONTINUOUS
 10
205.6214904785155966
 20
18.0796356201171911
 30
0.0
 11
205.9168548583984091
 21
18.0796356201171911
 31
0.0
  0
LINE
  5
69E
100
AcDbEntity
100
AcDbLine
  8
CADDY_2
 62
256
370
-1
  6
CONTINUOUS
 10
206.2491607666015909
 20
18.0796356201171911
 30
0.0
 11
206.7660675048828125
 21
18.0796356201171911
 31
0.0
  0
LINE
  5
69F
100
AcDbEntity
100
AcDbLine
  8
CADDY_2
 62
256
370
-1
  6
CONTINUOUS
 10
206.9137420654296875
 20
18.0796356201171911
 30
0.0
 11
207.2091369628905966
 21
18.0796356201171911
 31
0.0
  0
LINE
  5
6A0
100
AcDbEntity
100
AcDbLine
  8
CADDY_2
 62
256
370
-1
  6
CONTINUOUS
 10
207.3198699951171875
 20
18.0796356201171911
 30
0.0
 11
207.5045013427734091
 21
18.0796356201171911
 31
0.0
  0
LINE
  5
6A1
100
AcDbEntity
100
AcDbLine
  8
CADDY_2
 62
256
370
-1
  6
CONTINUOUS
 10
207.6522064208984091
 20
18.0796356201171911
 30
0.0
 11
208.2798461914061932
 21
18.0796356201171911
 31
0.0
  0
LINE
  5
6A2
100
AcDbEntity
100
AcDbLine
  8
CADDY_2
 62
256
370
-1
  6
CONTINUOUS
 10
208.3906097412109091
 20
18.0796356201171911
 30
0.0
 11
208.8336791992188068
 21
18.0796356201171911
 31
0.0
  0
LINE
  5
6A3
100
AcDbEntity
100
AcDbLine
  8
CADDY_2
 62
256
370
-1
  6
CONTINUOUS
 10
209.3136749267578125
 20
18.0796356201171911
 30
0.0
 11
209.5351867675780966
 21
18.0796356201171911
 31
0.0
  0
LINE
  5
6A4
100
AcDbEntity
100
AcDbLine
  8
CADDY_2
 62
256
370
-1
  6
CONTINUOUS
 10
209.8674774169921875
 20
18.0796356201171911
 30
0.0
 11
210.0890502929688068
 21
18.0796356201171911
 31
0.0
  0
LINE
  5
6A5
100
AcDbEntity
100
AcDbLine
  8
CADDY_2
 62
256
370
-1
  6
CONTINUOUS
 10
210.4951477050780966
 20
18.0796356201171911
 30
0.0
 11
210.7167205810546875
 21
18.0796356201171911
 31
0.0
  0
LINE
  5
6A6
100
AcDbEntity
100
AcDbLine
  8
CADDY_2
 62
256
370
-1
  6
CONTINUOUS
 10
211.1228485107421875
 20
18.0796356201171911
 30
0.0
 11
211.1597595214844034
 21
18.0796356201171911
 31
0.0
  0
LINE
  5
6A7
100
AcDbEntity
100
AcDbLine
  8
CADDY_2
 62
256
370
-1
  6
CONTINUOUS
 10
211.6766815185546875
 20
18.0796356201171911
 30
0.0
 11
211.9351196289061932
 21
18.0796356201171911
 31
0.0
  0
LINE
  5
6A8
100
AcDbEntity
100
AcDbLine
  8
CADDY_2
 62
256
370
-1
  6
CONTINUOUS
 10
212.3781890869140909
 20
18.0796356201171911
 30
0.0
 11
212.6366577148438068
 21
18.0796356201171911
 31
0.0
  0
LINE
  5
6A9
100
AcDbEntity
100
AcDbLine
  8
CADDY_2
 62
256
370
-1
  6
CONTINUOUS
 10
212.7104949951171875
 20
18.0796356201171911
 30
0.0
 11
212.7473907470703125
 21
18.0796356201171911
 31
0.0
  0
LINE
  5
6AA
100
AcDbEntity
100
AcDbLine
  8
CADDY_2
 62
256
370
-1
  6
CONTINUOUS
 10
212.8212432861328125
 20
18.0796356201171911
 30
0.0
 11
213.1166381835938068
 21
18.0796356201171911
 31
0.0
  0
LINE
  5
6AB
100
AcDbEntity
100
AcDbLine
  8
CADDY_2
 62
256
370
-1
  6
CONTINUOUS
 10
213.2643280029296875
 20
18.0796356201171911
 30
0.0
 11
213.5597229003905966
 21
18.0796356201171911
 31
0.0
  0
LINE
  5
6AC
100
AcDbEntity
100
AcDbLine
  8
CADDY_2
 62
256
370
-1
  6
CONTINUOUS
 10
213.6704559326171875
 20
18.0796356201171911
 30
0.0
 11
213.9658203125
 21
18.0796356201171911
 31
0.0
  0
LINE
  5
6AD
100
AcDbEntity
100
AcDbLine
  8
CADDY_2
 62
256
370
-1
  6
CONTINUOUS
 10
214.0396881103515909
 20
18.0796356201171911
 30
0.0
 11
214.2612152099609091
 21
18.0796356201171911
 31
0.0
  0
LINE
  5
6AE
100
AcDbEntity
100
AcDbLine
  8
CADDY_2
 62
256
370
-1
  6
CONTINUOUS
 10
214.5196838378905966
 20
18.0796356201171911
 30
0.0
 11
214.7781066894530966
 21
18.0796356201171911
 31
0.0
  0
LINE
  5
6AF
100
AcDbEntity
100
AcDbLine
  8
CADDY_2
 62
256
370
-1
  6
CONTINUOUS
 10
214.8519744873046875
 20
18.0796356201171911
 30
0.0
 11
215.3688659667969034
 21
18.0796356201171911
 31
0.0
  0
LINE
  5
6B0
100
AcDbEntity
100
AcDbLine
  8
CADDY_2
 62
256
370
-1
  6
CONTINUOUS
 10
215.4796600341796875
 20
18.0796356201171911
 30
0.0
 11
215.701171875
 21
18.0796356201171911
 31
0.0
  0
LINE
  5
6B1
100
AcDbEntity
100
AcDbLine
  8
CADDY_2
 62
256
370
-1
  6
CONTINUOUS
 10
215.9596405029296875
 20
18.0796356201171911
 30
0.0
 11
216.2180633544921875
 21
18.0796356201171911
 31
0.0
  0
LINE
  5
6B2
100
AcDbEntity
100
AcDbLine
  8
CADDY_2
 62
256
370
-1
  6
CONTINUOUS
 10
216.2919311523438068
 20
18.0796356201171911
 30
0.0
 11
216.7349853515625
 21
18.0796356201171911
 31
0.0
  0
LINE
  5
6B3
100
AcDbEntity
100
AcDbLine
  8
CADDY_2
 62
256
370
-1
  6
CONTINUOUS
 10
217.288818359375
 20
18.0796356201171911
 30
0.0
 11
217.3257293701171875
 21
18.0796356201171911
 31
0.0
  0
LINE
  5
6B4
100
AcDbEntity
100
AcDbLine
  8
CADDY_2
 62
256
370
-1
  6
CONTINUOUS
 10
217.7318725585938068
 20
18.0796356201171911
 30
0.0
 11
218.0272674560546875
 21
18.0796356201171911
 31
0.0
  0
LINE
  5
6B5
100
AcDbEntity
100
AcDbLine
  8
CADDY_2
 62
256
370
-1
  6
CONTINUOUS
 10
218.1749114990234091
 20
18.0796356201171911
 30
0.0
 11
218.4333953857421875
 21
18.0796356201171911
 31
0.0
  0
LINE
  5
6B6
100
AcDbEntity
100
AcDbLine
  8
CADDY_2
 62
256
370
-1
  6
CONTINUOUS
 10
219.0241394042969034
 20
18.0796356201171911
 30
0.0
 11
219.2825775146484091
 21
18.0796356201171911
 31
0.0
  0
LINE
  5
6B7
100
AcDbEntity
100
AcDbLine
  8
CADDY_2
 62
256
370
-1
  6
CONTINUOUS
 10
219.3564453125
 20
18.0796356201171911
 30
0.0
 11
219.3933410644530966
 21
18.0796356201171911
 31
0.0
  0
LINE
  5
6B8
100
AcDbEntity
100
AcDbLine
  8
CADDY_2
 62
256
370
-1
  6
CONTINUOUS
 10
219.5410461425780966
 20
18.0796356201171911
 30
0.0
 11
219.7625732421875
 21
18.0796356201171911
 31
0.0
  0
LINE
  5
6B9
100
AcDbEntity
100
AcDbLine
  8
CADDY_2
 62
256
370
-1
  6
CONTINUOUS
 10
220.1687164306640909
 20
18.0796356201171911
 30
0.0
 11
220.3902282714844034
 21
18.0796356201171911
 31
0.0
  0
LINE
  5
6BA
100
AcDbEntity
100
AcDbLine
  8
CADDY_2
 62
256
370
-1
  6
CONTINUOUS
 10
220.5010223388671875
 20
18.0796356201171911
 30
0.0
 11
220.944091796875
 21
18.0796356201171911
 31
0.0
  0
LINE
  5
6BB
100
AcDbEntity
100
AcDbLine
  8
CADDY_2
 62
256
370
-1
  6
CONTINUOUS
 10
221.2025146484375
 20
18.0796356201171911
 30
0.0
 11
221.4979095458984091
 21
18.0796356201171911
 31
0.0
  0
LINE
  5
6BC
100
AcDbEntity
100
AcDbLine
  8
CADDY_2
 62
256
370
-1
  6
CONTINUOUS
 10
221.6455841064453125
 20
18.0796356201171911
 30
0.0
 11
221.9409790039061932
 21
18.0796356201171911
 31
0.0
  0
ENDBLK
  5
6BD
100
AcDbEntity
  8
0
100
AcDbBlockEnd
  0
ENDSEC
  0
SECTION
  2
ENTITIES
  0
INSERT
  5
6BE
100
AcDbEntity
100
AcDbBlockReference
  8
CADDY_1
 62
256
370
-1
  6
ByLayer
  2
BLK1
 10
0.0
 20
0.0
 30
0.0
  0
MTEXT
  5
6BF
100
AcDbEntity
100
AcDbMText
  8
CADDY_1
 62
256
370
-1
  6
ByLayer
 10
23.6100006103515589
 20
243.8600000739097879
 30
0.0
 40
2.5725002586841579
 41
100.0
 71
7
 72
2
  1
Stromlaufplan
  7
CADDY_VECTORFONT1P
 50
0.0
 73
0
 44
1.0
  0
MTEXT
  5
6C0
100
AcDbEntity
100
AcDbMText
  8
CADDY_1
 62
256
370
-1
  6
ByLayer
 10
84.9850082397460938
 20
243.8600000739097879
 30
0.0
 40
2.5725002586841579
 41
100.0
 71
7
 72
2
  1

  7
CADDY_VECTORFONT1P
 50
0.0
 73
0
 44
1.0
  0
MTEXT
  5
6C1
100
AcDbEntity
100
AcDbMText
  8
CADDY_1
 62
256
370
-1
  6
ByLayer
 10
114.9850082397460938
 20
243.8600000739097879
 30
0.0
 40
2.5725002586841579
 41
100.0
 71
7
 72
2
  1

  7
CADDY_VECTORFONT1P
 50
0.0
 73
0
 44
1.0
  0
MTEXT
  5
6C2
100
AcDbEntity
100
AcDbMText
  8
CADDY_1
 62
256
370
-1
  6
ByLayer
 10
144.9850006103515909
 20
243.8600000739097879
 30
0.0
 40
2.5725002586841579
 41
100.0
 71
7
 72
2
  1
20
  7
CADDY_VECTORFONT1P
 50
0.0
 73
0
 44
1.0
  0
MTEXT
  5
6C3
100
AcDbEntity
100
AcDbMText
  8
CADDY_1
 62
256
370
-1
  6
ByLayer
 10
150.2350006103515909
 20
243.8600000739097879
 30
0.0
 40
2.5725002586841579
 41
100.0
 71
7
 72
2
  1

  7
CADDY_VECTORFONT1P
 50
0.0
 73
0
 44
1.0
  0
MTEXT
  5
6C4
100
AcDbEntity
100
AcDbMText
  8
CADDY_1
 62
256
370
-1
  6
ByLayer
 10
335.2499671056867214
 20
243.8600000739097879
 30
0.0
 40
2.5725002586841579
 41
100.0
 71
8
 72
2
  1
24.07.2006
  7
CADDY_VECTORFONT1P
 50
0.0
 73
0
 44
1.0
  0
MTEXT
  5
6C5
100
AcDbEntity
100
AcDbMText
  8
CADDY_1
 62
256
370
-1
  6
ByLayer
 10
379.8750128820539089
 20
243.8600000739097879
 30
0.0
 40
2.5725002586841579
 41
100.0
 71
8
 72
2
  1
MK
  7
CADDY_VECTORFONT1P
 50
0.0
 73
0
 44
1.0
  0
MTEXT
  5
6C6
100
AcDbEntity
100
AcDbMText
  8
CADDY_1
 62
256
370
-1
  6
ByLayer
 10
176.9850158691405966
 20
243.8600000739097879
 30
0.0
 40
2.5725002586841579
 41
100.0
 71
7
 72
2
  1
Steuerung\~DKC\~13A1
  7
CADDY_VECTORFONT1P
 50
0.0
 73
0
 44
1.0
  0
MTEXT
  5
6C7
100
AcDbEntity
100
AcDbMText
  8
CADDY_1
 62
256
370
-1
  6
ByLayer
 10
253.3600158691405966
 20
243.8600000739097879
 30
0.0
 40
2.5725002586841579
 41
100.0
 71
7
 72
2
  1
Digitale\~Ein-/Ausg\U+00e4nge
  7
CADDY_VECTORFONT1P
 50
0.0
 73
0
 44
1.0
  0
MTEXT
  5
6C8
100
AcDbEntity
100
AcDbMText
  8
CADDY_1
 62
256
370
-1
  6
ByLayer
 10
23.6100006103515589
 20
233.8600000739097879
 30
0.0
 40
2.5725002586841579
 41
100.0
 71
7
 72
2
  1
Stromlaufplan
  7
CADDY_VECTORFONT1P
 50
0.0
 73
0
 44
1.0
  0
MTEXT
  5
6C9
100
AcDbEntity
100
AcDbMText
  8
CADDY_1
 62
256
370
-1
  6
ByLayer
 10
84.9850082397460938
 20
233.8600000739097879
 30
0.0
 40
2.5725002586841579
 41
100.0
 71
7
 72
2
  1

  7
CADDY_VECTORFONT1P
 50
0.0
 73
0
 44
1.0
  0
MTEXT
  5
6CA
100
AcDbEntity
100
AcDbMText
  8
CADDY_1
 62
256
370
-1
  6
ByLayer
 10
114.9850082397460938
 20
233.8600000739097879
 30
0.0
 40
2.5725002586841579
 41
100.0
 71
7
 72
2
  1

  7
CADDY_VECTORFONT1P
 50
0.0
 73
0
 44
1.0
  0
MTEXT
  5
6CB
100
AcDbEntity
100
AcDbMText
  8
CADDY_1
 62
256
370
-1
  6
ByLayer
 10
144.9850006103515909
 20
233.8600000739097879
 30
0.0
 40
2.5725002586841579
 41
100.0
 71
7
 72
2
  1
21
  7
CADDY_VECTORFONT1P
 50
0.0
 73
0
 44
1.0
  0
MTEXT
  5
6CC
100
AcDbEntity
100
AcDbMText
  8
CADDY_1
 62
256
370
-1
  6
ByLayer
 10
150.2350006103515909
 20
233.8600000739097879
 30
0.0
 40
2.5725002586841579
 41
100.0
 71
7
 72
2
  1

  7
CADDY_VECTORFONT1P
 50
0.0
 73
0
 44
1.0
  0
MTEXT
  5
6CD
100
AcDbEntity
100
AcDbMText
  8
CADDY_1
 62
256
370
-1
  6
ByLayer
 10
335.2499671056867214
 20
233.8600000739097879
 30
0.0
 40
2.5725002586841579
 41
100.0
 71
8
 72
2
  1
24.07.2006
  7
CADDY_VECTORFONT1P
 50
0.0
 73
0
 44
1.0
  0
MTEXT
  5
6CE
100
AcDbEntity
100
AcDbMText
  8
CADDY_1
 62
256
370
-1
  6
ByLayer
 10
379.8750128820539089
 20
233.8600000739097879
 30
0.0
 40
2.5725002586841579
 41
100.0
 71
8
 72
2
  1
MK
  7
CADDY_VECTORFONT1P
 50
0.0
 73
0
 44
1.0
  0
MTEXT
  5
6CF
100
AcDbEntity
100
AcDbMText
  8
CADDY_1
 62
256
370
-1
  6
ByLayer
 10
176.9850158691405966
 20
233.8600000739097879
 30
0.0
 40
2.5725002586841579
 41
100.0
 71
7
 72
2
  1
Steuerung\~Zusatzbleeder\~BZM
  7
CADDY_VECTORFONT1P
 50
0.0
 73
0
 44
1.0
  0
MTEXT
  5
6D0
100
AcDbEntity
100
AcDbMText
  8
CADDY_1
 62
256
370
-1
  6
ByLayer
 10
253.3600158691405966
 20
233.8600000739097879
 30
0.0
 40
2.5725002586841579
 41
100.0
 71
7
 72
2
  1

  7
CADDY_VECTORFONT1P
 50
0.0
 73
0
 44
1.0
  0
MTEXT
  5
6D1
100
AcDbEntity
100
AcDbMText
  8
CADDY_1
 62
256
370
-1
  6
ByLayer
 10
23.6100006103515589
 20
223.8600000739097879
 30
0.0
 40
2.5725002586841579
 41
100.0
 71
7
 72
2
  1
Stromlaufplan
  7
CADDY_VECTORFONT1P
 50
0.0
 73
0
 44
1.0
  0
MTEXT
  5
6D2
100
AcDbEntity
100
AcDbMText
  8
CADDY_1
 62
256
370
-1
  6
ByLayer
 10
84.9850082397460938
 20
223.8600000739097879
 30
0.0
 40
2.5725002586841579
 41
100.0
 71
7
 72
2
  1

  7
CADDY_VECTORFONT1P
 50
0.0
 73
0
 44
1.0
  0
MTEXT
  5
6D3
100
AcDbEntity
100
AcDbMText
  8
CADDY_1
 62
256
370
-1
  6
ByLayer
 10
114.9850082397460938
 20
223.8600000739097879
 30
0.0
 40
2.5725002586841579
 41
100.0
 71
7
 72
2
  1

  7
CADDY_VECTORFONT1P
 50
0.0
 73
0
 44
1.0
  0
MTEXT
  5
6D4
100
AcDbEntity
100
AcDbMText
  8
CADDY_1
 62
256
370
-1
  6
ByLayer
 10
144.9850006103515909
 20
223.8600000739097879
 30
0.0
 40
2.5725002586841579
 41
100.0
 71
7
 72
2
  1
22
  7
CADDY_VECTORFONT1P
 50
0.0
 73
0
 44
1.0
  0
MTEXT
  5
6D5
100
AcDbEntity
100
AcDbMText
  8
CADDY_1
 62
256
370
-1
  6
ByLayer
 10
150.2350006103515909
 20
223.8600000739097879
 30
0.0
 40
2.5725002586841579
 41
100.0
 71
7
 72
2
  1

  7
CADDY_VECTORFONT1P
 50
0.0
 73
0
 44
1.0
  0
MTEXT
  5
6D6
100
AcDbEntity
100
AcDbMText
  8
CADDY_1
 62
256
370
-1
  6
ByLayer
 10
335.2499671056867214
 20
223.8600000739097879
 30
0.0
 40
2.5725002586841579
 41
100.0
 71
8
 72
2
  1
20.07.2006
  7
CADDY_VECTORFONT1P
 50
0.0
 73
0
 44
1.0
  0
MTEXT
  5
6D7
100
AcDbEntity
100
AcDbMText
  8
CADDY_1
 62
256
370
-1
  6
ByLayer
 10
379.8750128820539089
 20
223.8600000739097879
 30
0.0
 40
2.5725002586841579
 41
100.0
 71
8
 72
2
  1
MK
  7
CADDY_VECTORFONT1P
 50
0.0
 73
0
 44
1.0
  0
MTEXT
  5
6D8
100
AcDbEntity
100
AcDbMText
  8
CADDY_1
 62
256
370
-1
  6
ByLayer
 10
176.9850158691405966
 20
223.8600000739097879
 30
0.0
 40
2.5725002586841579
 41
100.0
 71
7
 72
2
  1
Drehgeber\~Heidenhain
  7
CADDY_VECTORFONT1P
 50
0.0
 73
0
 44
1.0
  0
MTEXT
  5
6D9
100
AcDbEntity
100
AcDbMText
  8
CADDY_1
 62
256
370
-1
  6
ByLayer
 10
253.3600158691405966
 20
223.8600000739097879
 30
0.0
 40
2.5725002586841579
 41
100.0
 71
7
 72
2
  1

  7
CADDY_VECTORFONT1P
 50
0.0
 73
0
 44
1.0
  0
MTEXT
  5
6DA
100
AcDbEntity
100
AcDbMText
  8
CADDY_1
 62
256
370
-1
  6
ByLayer
 10
23.6100006103515589
 20
213.8600000739097879
 30
0.0
 40
2.5725002586841579
 41
100.0
 71
7
 72
2
  1
Stromlaufplan
  7
CADDY_VECTORFONT1P
 50
0.0
 73
0
 44
1.0
  0
MTEXT
  5
6DB
100
AcDbEntity
100
AcDbMText
  8
CADDY_1
 62
256
370
-1
  6
ByLayer
 10
84.9850082397460938
 20
213.8600000739097879
 30
0.0
 40
2.5725002586841579
 41
100.0
 71
7
 72
2
  1

  7
CADDY_VECTORFONT1P
 50
0.0
 73
0
 44
1.0
  0
MTEXT
  5
6DC
100
AcDbEntity
100
AcDbMText
  8
CADDY_1
 62
256
370
-1
  6
ByLayer
 10
114.9850082397460938
 20
213.8600000739097879
 30
0.0
 40
2.5725002586841579
 41
100.0
 71
7
 72
2
  1

  7
CADDY_VECTORFONT1P
 50
0.0
 73
0
 44
1.0
  0
MTEXT
  5
6DD
100
AcDbEntity
100
AcDbMText
  8
CADDY_1
 62
256
370
-1
  6
ByLayer
 10
144.9850006103515909
 20
213.8600000739097879
 30
0.0
 40
2.5725002586841579
 41
100.0
 71
7
 72
2
  1
23
  7
CADDY_VECTORFONT1P
 50
0.0
 73
0
 44
1.0
  0
MTEXT
  5
6DE
100
AcDbEntity
100
AcDbMText
  8
CADDY_1
 62
256
370
-1
  6
ByLayer
 10
150.2350006103515909
 20
213.8600000739097879
 30
0.0
 40
2.5725002586841579
 41
100.0
 71
7
 72
2
  1

  7
CADDY_VECTORFONT1P
 50
0.0
 73
0
 44
1.0
  0
MTEXT
  5
6DF
100
AcDbEntity
100
AcDbMText
  8
CADDY_1
 62
256
370
-1
  6
ByLayer
 10
335.2499823644757271
 20
213.8600000739097879
 30
0.0
 40
2.5725002586841579
 41
100.0
 71
8
 72
2
  1
14.08.2006
  7
CADDY_VECTORFONT1P
 50
0.0
 73
0
 44
1.0
  0
MTEXT
  5
6E0
100
AcDbEntity
100
AcDbMText
  8
CADDY_1
 62
256
370
-1
  6
ByLayer
 10
379.8750128820539089
 20
213.8600000739097879
 30
0.0
 40
2.5725002586841579
 41
100.0
 71
8
 72
2
  1
MK
  7
CADDY_VECTORFONT1P
 50
0.0
 73
0
 44
1.0
  0
MTEXT
  5
6E1
100
AcDbEntity
100
AcDbMText
  8
CADDY_1
 62
256
370
-1
  6
ByLayer
 10
176.9850158691405966
 20
213.8600000739097879
 30
0.0
 40
2.5725002586841579
 41
100.0
 71
7
 72
2
  1
Fernsteuerung
  7
CADDY_VECTORFONT1P
 50
0.0
 73
0
 44
1.0
  0
MTEXT
  5
6E2
100
AcDbEntity
100
AcDbMText
  8
CADDY_1
 62
256
370
-1
  6
ByLayer
 10
253.3600158691405966
 20
213.8600000739097879
 30
0.0
 40
2.5725002586841579
 41
100.0
 71
7
 72
2
  1

  7
CADDY_VECTORFONT1P
 50
0.0
 73
0
 44
1.0
  0
MTEXT
  5
6E3
100
AcDbEntity
100
AcDbMText
  8
CADDY_1
 62
256
370
-1
  6
ByLayer
 10
23.6100006103515589
 20
203.8600000739097879
 30
0.0
 40
2.5725002586841579
 41
100.0
 71
7
 72
2
  1
Stromlaufplan
  7
CADDY_VECTORFONT1P
 50
0.0
 73
0
 44
1.0
  0
MTEXT
  5
6E4
100
AcDbEntity
100
AcDbMText
  8
CADDY_1
 62
256
370
-1
  6
ByLayer
 10
84.9850082397460938
 20
203.8600000739097879
 30
0.0
 40
2.5725002586841579
 41
100.0
 71
7
 72
2
  1

  7
CADDY_VECTORFONT1P
 50
0.0
 73
0
 44
1.0
  0
MTEXT
  5
6E5
100
AcDbEntity
100
AcDbMText
  8
CADDY_1
 62
256
370
-1
  6
ByLayer
 10
114.9850082397460938
 20
203.8600000739097879
 30
0.0
 40
2.5725002586841579
 41
100.0
 71
7
 72
2
  1

  7
CADDY_VECTORFONT1P
 50
0.0
 73
0
 44
1.0
  0
MTEXT
  5
6E6
100
AcDbEntity
100
AcDbMText
  8
CADDY_1
 62
256
370
-1
  6
ByLayer
 10
144.9850006103515909
 20
203.8600000739097879
 30
0.0
 40
2.5725002586841579
 41
100.0
 71
7
 72
2
  1
24
  7
CADDY_VECTORFONT1P
 50
0.0
 73
0
 44
1.0
  0
MTEXT
  5
6E7
100
AcDbEntity
100
AcDbMText
  8
CADDY_1
 62
256
370
-1
  6
ByLayer
 10
150.2350006103515909
 20
203.8600000739097879
 30
0.0
 40
2.5725002586841579
 41
100.0
 71
7
 72
2
  1

  7
CADDY_VECTORFONT1P
 50
0.0
 73
0
 44
1.0
  0
MTEXT
  5
6E8
100
AcDbEntity
100
AcDbMText
  8
CADDY_1
 62
256
370
-1
  6
ByLayer
 10
335.2499671056867214
 20
203.8600000739097879
 30
0.0
 40
2.5725002586841579
 41
100.0
 71
8
 72
2
  1
24.07.2006
  7
CADDY_VECTORFONT1P
 50
0.0
 73
0
 44
1.0
  0
MTEXT
  5
6E9
100
AcDbEntity
100
AcDbMText
  8
CADDY_1
 62
256
370
-1
  6
ByLayer
 10
379.8750128820539089
 20
203.8600000739097879
 30
0.0
 40
2.5725002586841579
 41
100.0
 71
8
 72
2
  1
MK
  7
CADDY_VECTORFONT1P
 50
0.0
 73
0
 44
1.0
  0
MTEXT
  5
6EA
100
AcDbEntity
100
AcDbMText
  8
CADDY_1
 62
256
370
-1
  6
ByLayer
 10
176.9850158691405966
 20
203.8600000739097879
 30
0.0
 40
2.5725002586841579
 41
100.0
 71
7
 72
2
  1
Reserveblatt
  7
CADDY_VECTORFONT1P
 50
0.0
 73
0
 44
1.0
  0
MTEXT
  5
6EB
100
AcDbEntity
100
AcDbMText
  8
CADDY_1
 62
256
370
-1
  6
ByLayer
 10
253.3600158691405966
 20
203.8600000739097879
 30
0.0
 40
2.5725002586841579
 41
100.0
 71
7
 72
2
  1

  7
CADDY_VECTORFONT1P
 50
0.0
 73
0
 44
1.0
  0
MTEXT
  5
6EC
100
AcDbEntity
100
AcDbMText
  8
CADDY_1
 62
256
370
-1
  6
ByLayer
 10
23.6100006103515589
 20
193.8600000739097879
 30
0.0
 40
2.5725002586841579
 41
100.0
 71
7
 72
2
  1
Stromlaufplan
  7
CADDY_VECTORFONT1P
 50
0.0
 73
0
 44
1.0
  0
MTEXT
  5
6ED
100
AcDbEntity
100
AcDbMText
  8
CADDY_1
 62
256
370
-1
  6
ByLayer
 10
84.9850082397460938
 20
193.8600000739097879
 30
0.0
 40
2.5725002586841579
 41
100.0
 71
7
 72
2
  1

  7
CADDY_VECTORFONT1P
 50
0.0
 73
0
 44
1.0
  0
MTEXT
  5
6EE
100
AcDbEntity
100
AcDbMText
  8
CADDY_1
 62
256
370
-1
  6
ByLayer
 10
114.9850082397460938
 20
193.8600000739097879
 30
0.0
 40
2.5725002586841579
 41
100.0
 71
7
 72
2
  1

  7
CADDY_VECTORFONT1P
 50
0.0
 73
0
 44
1.0
  0
MTEXT
  5
6EF
100
AcDbEntity
100
AcDbMText
  8
CADDY_1
 62
256
370
-1
  6
ByLayer
 10
144.9850006103515909
 20
193.8600000739097879
 30
0.0
 40
2.5725002586841579
 41
100.0
 71
7
 72
2
  1
25
  7
CADDY_VECTORFONT1P
 50
0.0
 73
0
 44
1.0
  0
MTEXT
  5
6F0
100
AcDbEntity
100
AcDbMText
  8
CADDY_1
 62
256
370
-1
  6
ByLayer
 10
150.2350006103515909
 20
193.8600000739097879
 30
0.0
 40
2.5725002586841579
 41
100.0
 71
7
 72
2
  1

  7
CADDY_VECTORFONT1P
 50
0.0
 73
0
 44
1.0
  0
MTEXT
  5
6F1
100
AcDbEntity
100
AcDbMText
  8
CADDY_1
 62
256
370
-1
  6
ByLayer
 10
335.2499671056867214
 20
193.8600000739097879
 30
0.0
 40
2.5725002586841579
 41
100.0
 71
8
 72
2
  1
24.07.2006
  7
CADDY_VECTORFONT1P
 50
0.0
 73
0
 44
1.0
  0
MTEXT
  5
6F2
100
AcDbEntity
100
AcDbMText
  8
CADDY_1
 62
256
370
-1
  6
ByLayer
 10
379.8750128820539089
 20
193.8600000739097879
 30
0.0
 40
2.5725002586841579
 41
100.0
 71
8
 72
2
  1
MK
  7
CADDY_VECTORFONT1P
 50
0.0
 73
0
 44
1.0
  0
MTEXT
  5
6F3
100
AcDbEntity
100
AcDbMText
  8
CADDY_1
 62
256
370
-1
  6
ByLayer
 10
176.9850158691405966
 20
193.8600000739097879
 30
0.0
 40
2.5725002586841579
 41
100.0
 71
7
 72
2
  1
\U+00dcbersicht\~Steuerung
  7
CADDY_VECTORFONT1P
 50
0.0
 73
0
 44
1.0
  0
MTEXT
  5
6F4
100
AcDbEntity
100
AcDbMText
  8
CADDY_1
 62
256
370
-1
  6
ByLayer
 10
253.3600158691405966
 20
193.8600000739097879
 30
0.0
 40
2.5725002586841579
 41
100.0
 71
7
 72
2
  1
IndraControl\~L20
  7
CADDY_VECTORFONT1P
 50
0.0
 73
0
 44
1.0
  0
MTEXT
  5
6F5
100
AcDbEntity
100
AcDbMText
  8
CADDY_1
 62
256
370
-1
  6
ByLayer
 10
23.6100006103515589
 20
183.8600000739097879
 30
0.0
 40
2.5725002586841579
 41
100.0
 71
7
 72
2
  1
Stromlaufplan
  7
CADDY_VECTORFONT1P
 50
0.0
 73
0
 44
1.0
  0
MTEXT
  5
6F6
100
AcDbEntity
100
AcDbMText
  8
CADDY_1
 62
256
370
-1
  6
ByLayer
 10
84.9850082397460938
 20
183.8600000739097879
 30
0.0
 40
2.5725002586841579
 41
100.0
 71
7
 72
2
  1

  7
CADDY_VECTORFONT1P
 50
0.0
 73
0
 44
1.0
  0
MTEXT
  5
6F7
100
AcDbEntity
100
AcDbMText
  8
CADDY_1
 62
256
370
-1
  6
ByLayer
 10
114.9850082397460938
 20
183.8600000739097879
 30
0.0
 40
2.5725002586841579
 41
100.0
 71
7
 72
2
  1

  7
CADDY_VECTORFONT1P
 50
0.0
 73
0
 44
1.0
  0
MTEXT
  5
6F8
100
AcDbEntity
100
AcDbMText
  8
CADDY_1
 62
256
370
-1
  6
ByLayer
 10
144.9850006103515909
 20
183.8600000739097879
 30
0.0
 40
2.5725002586841579
 41
100.0
 71
7
 72
2
  1
26
  7
CADDY_VECTORFONT1P
 50
0.0
 73
0
 44
1.0
  0
MTEXT
  5
6F9
100
AcDbEntity
100
AcDbMText
  8
CADDY_1
 62
256
370
-1
  6
ByLayer
 10
150.2350006103515909
 20
183.8600000739097879
 30
0.0
 40
2.5725002586841579
 41
100.0
 71
7
 72
2
  1

  7
CADDY_VECTORFONT1P
 50
0.0
 73
0
 44
1.0
  0
MTEXT
  5
6FA
100
AcDbEntity
100
AcDbMText
  8
CADDY_1
 62
256
370
-1
  6
ByLayer
 10
335.2499671056867214
 20
183.8600000739097879
 30
0.0
 40
2.5725002586841579
 41
100.0
 71
8
 72
2
  1
24.07.2006
  7
CADDY_VECTORFONT1P
 50
0.0
 73
0
 44
1.0
  0
MTEXT
  5
6FB
100
AcDbEntity
100
AcDbMText
  8
CADDY_1
 62
256
370
-1
  6
ByLayer
 10
379.8750128820539089
 20
183.8600000739097879
 30
0.0
 40
2.5725002586841579
 41
100.0
 71
8
 72
2
  1
MK
  7
CADDY_VECTORFONT1P
 50
0.0
 73
0
 44
1.0
  0
MTEXT
  5
6FC
100
AcDbEntity
100
AcDbMText
  8
CADDY_1
 62
256
370
-1
  6
ByLayer
 10
176.9850158691405966
 20
183.8600000739097879
 30
0.0
 40
2.5725002586841579
 41
100.0
 71
7
 72
2
  1
Eingangsbyte\~IX0
  7
CADDY_VECTORFONT1P
 50
0.0
 73
0
 44
1.0
  0
MTEXT
  5
6FD
100
AcDbEntity
100
AcDbMText
  8
CADDY_1
 62
256
370
-1
  6
ByLayer
 10
253.3600158691405966
 20
183.8600000739097879
 30
0.0
 40
2.5725002586841579
 41
100.0
 71
7
 72
2
  1

  7
CADDY_VECTORFONT1P
 50
0.0
 73
0
 44
1.0
  0
MTEXT
  5
6FE
100
AcDbEntity
100
AcDbMText
  8
CADDY_1
 62
256
370
-1
  6
ByLayer
 10
23.6100006103515589
 20
173.8600000739097879
 30
0.0
 40
2.5725002586841579
 41
100.0
 71
7
 72
2
  1
Stromlaufplan
  7
CADDY_VECTORFONT1P
 50
0.0
 73
0
 44
1.0
  0
MTEXT
  5
6FF
100
AcDbEntity
100
AcDbMText
  8
CADDY_1
 62
256
370
-1
  6
ByLayer
 10
84.9850082397460938
 20
173.8600000739097879
 30
0.0
 40
2.5725002586841579
 41
100.0
 71
7
 72
2
  1

  7
CADDY_VECTORFONT1P
 50
0.0
 73
0
 44
1.0
  0
MTEXT
  5
700
100
AcDbEntity
100
AcDbMText
  8
CADDY_1
 62
256
370
-1
  6
ByLayer
 10
114.9850082397460938
 20
173.8600000739097879
 30
0.0
 40
2.5725002586841579
 41
100.0
 71
7
 72
2
  1

  7
CADDY_VECTORFONT1P
 50
0.0
 73
0
 44
1.0
  0
MTEXT
  5
701
100
AcDbEntity
100
AcDbMText
  8
CADDY_1
 62
256
370
-1
  6
ByLayer
 10
144.9850006103515909
 20
173.8600000739097879
 30
0.0
 40
2.5725002586841579
 41
100.0
 71
7
 72
2
  1
27
  7
CADDY_VECTORFONT1P
 50
0.0
 73
0
 44
1.0
  0
MTEXT
  5
702
100
AcDbEntity
100
AcDbMText
  8
CADDY_1
 62
256
370
-1
  6
ByLayer
 10
150.2350006103515909
 20
173.8600000739097879
 30
0.0
 40
2.5725002586841579
 41
100.0
 71
7
 72
2
  1

  7
CADDY_VECTORFONT1P
 50
0.0
 73
0
 44
1.0
  0
MTEXT
  5
703
100
AcDbEntity
100
AcDbMText
  8
CADDY_1
 62
256
370
-1
  6
ByLayer
 10
335.2499823644757271
 20
173.8600000739097879
 30
0.0
 40
2.5725002586841579
 41
100.0
 71
8
 72
2
  1
12.07.2006
  7
CADDY_VECTORFONT1P
 50
0.0
 73
0
 44
1.0
  0
MTEXT
  5
704
100
AcDbEntity
100
AcDbMText
  8
CADDY_1
 62
256
370
-1
  6
ByLayer
 10
379.8750128820539089
 20
173.8600000739097879
 30
0.0
 40
2.5725002586841579
 41
100.0
 71
8
 72
2
  1
MK
  7
CADDY_VECTORFONT1P
 50
0.0
 73
0
 44
1.0
  0
MTEXT
  5
705
100
AcDbEntity
100
AcDbMText
  8
CADDY_1
 62
256
370
-1
  6
ByLayer
 10
176.9850158691405966
 20
173.8600000739097879
 30
0.0
 40
2.5725002586841579
 41
100.0
 71
7
 72
2
  1
Ausgangsbyte\~QX0
  7
CADDY_VECTORFONT1P
 50
0.0
 73
0
 44
1.0
  0
MTEXT
  5
706
100
AcDbEntity
100
AcDbMText
  8
CADDY_1
 62
256
370
-1
  6
ByLayer
 10
253.3600158691405966
 20
173.8600000739097879
 30
0.0
 40
2.5725002586841579
 41
100.0
 71
7
 72
2
  1

  7
CADDY_VECTORFONT1P
 50
0.0
 73
0
 44
1.0
  0
MTEXT
  5
707
100
AcDbEntity
100
AcDbMText
  8
CADDY_1
 62
256
370
-1
  6
ByLayer
 10
23.6100006103515589
 20
163.8600000739097879
 30
0.0
 40
2.5725002586841579
 41
100.0
 71
7
 72
2
  1
Stromlaufplan
  7
CADDY_VECTORFONT1P
 50
0.0
 73
0
 44
1.0
  0
MTEXT
  5
708
100
AcDbEntity
100
AcDbMText
  8
CADDY_1
 62
256
370
-1
  6
ByLayer
 10
84.9850082397460938
 20
163.8600000739097879
 30
0.0
 40
2.5725002586841579
 41
100.0
 71
7
 72
2
  1

  7
CADDY_VECTORFONT1P
 50
0.0
 73
0
 44
1.0
  0
MTEXT
  5
709
100
AcDbEntity
100
AcDbMText
  8
CADDY_1
 62
256
370
-1
  6
ByLayer
 10
114.9850082397460938
 20
163.8600000739097879
 30
0.0
 40
2.5725002586841579
 41
100.0
 71
7
 72
2
  1

  7
CADDY_VECTORFONT1P
 50
0.0
 73
0
 44
1.0
  0
MTEXT
  5
70A
100
AcDbEntity
100
AcDbMText
  8
CADDY_1
 62
256
370
-1
  6
ByLayer
 10
144.9850006103515909
 20
163.8600000739097879
 30
0.0
 40
2.5725002586841579
 41
100.0
 71
7
 72
2
  1
28
  7
CADDY_VECTORFONT1P
 50
0.0
 73
0
 44
1.0
  0
MTEXT
  5
70B
100
AcDbEntity
100
AcDbMText
  8
CADDY_1
 62
256
370
-1
  6
ByLayer
 10
150.2350006103515909
 20
163.8600000739097879
 30
0.0
 40
2.5725002586841579
 41
100.0
 71
7
 72
2
  1

  7
CADDY_VECTORFONT1P
 50
0.0
 73
0
 44
1.0
  0
MTEXT
  5
70C
100
AcDbEntity
100
AcDbMText
  8
CADDY_1
 62
256
370
-1
  6
ByLayer
 10
335.2499823644757271
 20
163.8600000739097879
 30
0.0
 40
2.5725002586841579
 41
100.0
 71
8
 72
2
  1
12.07.2006
  7
CADDY_VECTORFONT1P
 50
0.0
 73
0
 44
1.0
  0
MTEXT
  5
70D
100
AcDbEntity
100
AcDbMText
  8
CADDY_1
 62
256
370
-1
  6
ByLayer
 10
379.8750128820539089
 20
163.8600000739097879
 30
0.0
 40
2.5725002586841579
 41
100.0
 71
8
 72
2
  1
MK
  7
CADDY_VECTORFONT1P
 50
0.0
 73
0
 44
1.0
  0
MTEXT
  5
70E
100
AcDbEntity
100
AcDbMText
  8
CADDY_1
 62
256
370
-1
  6
ByLayer
 10
176.9850158691405966
 20
163.8600000739097879
 30
0.0
 40
2.5725002586841579
 41
100.0
 71
7
 72
2
  1
Einspeisung\~CPU
  7
CADDY_VECTORFONT1P
 50
0.0
 73
0
 44
1.0
  0
MTEXT
  5
70F
100
AcDbEntity
100
AcDbMText
  8
CADDY_1
 62
256
370
-1
  6
ByLayer
 10
253.3600158691405966
 20
163.8600000739097879
 30
0.0
 40
2.5725002586841579
 41
100.0
 71
7
 72
2
  1

  7
CADDY_VECTORFONT1P
 50
0.0
 73
0
 44
1.0
  0
MTEXT
  5
710
100
AcDbEntity
100
AcDbMText
  8
CADDY_1
 62
256
370
-1
  6
ByLayer
 10
23.6100006103515589
 20
153.8600000739097879
 30
0.0
 40
2.5725002586841579
 41
100.0
 71
7
 72
2
  1
Stromlaufplan
  7
CADDY_VECTORFONT1P
 50
0.0
 73
0
 44
1.0
  0
MTEXT
  5
711
100
AcDbEntity
100
AcDbMText
  8
CADDY_1
 62
256
370
-1
  6
ByLayer
 10
84.9850082397460938
 20
153.8600000739097879
 30
0.0
 40
2.5725002586841579
 41
100.0
 71
7
 72
2
  1

  7
CADDY_VECTORFONT1P
 50
0.0
 73
0
 44
1.0
  0
MTEXT
  5
712
100
AcDbEntity
100
AcDbMText
  8
CADDY_1
 62
256
370
-1
  6
ByLayer
 10
114.9850082397460938
 20
153.8600000739097879
 30
0.0
 40
2.5725002586841579
 41
100.0
 71
7
 72
2
  1

  7
CADDY_VECTORFONT1P
 50
0.0
 73
0
 44
1.0
  0
MTEXT
  5
713
100
AcDbEntity
100
AcDbMText
  8
CADDY_1
 62
256
370
-1
  6
ByLayer
 10
144.9850006103515909
 20
153.8600000739097879
 30
0.0
 40
2.5725002586841579
 41
100.0
 71
7
 72
2
  1
29
  7
CADDY_VECTORFONT1P
 50
0.0
 73
0
 44
1.0
  0
MTEXT
  5
714
100
AcDbEntity
100
AcDbMText
  8
CADDY_1
 62
256
370
-1
  6
ByLayer
 10
150.2350006103515909
 20
153.8600000739097879
 30
0.0
 40
2.5725002586841579
 41
100.0
 71
7
 72
2
  1

  7
CADDY_VECTORFONT1P
 50
0.0
 73
0
 44
1.0
  0
MTEXT
  5
715
100
AcDbEntity
100
AcDbMText
  8
CADDY_1
 62
256
370
-1
  6
ByLayer
 10
335.2499671056867214
 20
153.8600000739097879
 30
0.0
 40
2.5725002586841579
 41
100.0
 71
8
 72
2
  1
24.07.2006
  7
CADDY_VECTORFONT1P
 50
0.0
 73
0
 44
1.0
  0
MTEXT
  5
716
100
AcDbEntity
100
AcDbMText
  8
CADDY_1
 62
256
370
-1
  6
ByLayer
 10
379.8750128820539089
 20
153.8600000739097879
 30
0.0
 40
2.5725002586841579
 41
100.0
 71
8
 72
2
  1
MK
  7
CADDY_VECTORFONT1P
 50
0.0
 73
0
 44
1.0
  0
MTEXT
  5
717
100
AcDbEntity
100
AcDbMText
  8
CADDY_1
 62
256
370
-1
  6
ByLayer
 10
176.9850158691405966
 20
153.8600000739097879
 30
0.0
 40
2.5725002586841579
 41
100.0
 71
7
 72
2
  1
Eingangsbyte\~IX1
  7
CADDY_VECTORFONT1P
 50
0.0
 73
0
 44
1.0
  0
MTEXT
  5
718
100
AcDbEntity
100
AcDbMText
  8
CADDY_1
 62
256
370
-1
  6
ByLayer
 10
253.3600158691405966
 20
153.8600000739097879
 30
0.0
 40
2.5725002586841579
 41
100.0
 71
7
 72
2
  1

  7
CADDY_VECTORFONT1P
 50
0.0
 73
0
 44
1.0
  0
MTEXT
  5
719
100
AcDbEntity
100
AcDbMText
  8
CADDY_1
 62
256
370
-1
  6
ByLayer
 10
23.6100006103515589
 20
143.8600000739097879
 30
0.0
 40
2.5725002586841579
 41
100.0
 71
7
 72
2
  1
Stromlaufplan
  7
CADDY_VECTORFONT1P
 50
0.0
 73
0
 44
1.0
  0
MTEXT
  5
71A
100
AcDbEntity
100
AcDbMText
  8
CADDY_1
 62
256
370
-1
  6
ByLayer
 10
84.9850082397460938
 20
143.8600000739097879
 30
0.0
 40
2.5725002586841579
 41
100.0
 71
7
 72
2
  1

  7
CADDY_VECTORFONT1P
 50
0.0
 73
0
 44
1.0
  0
MTEXT
  5
71B
100
AcDbEntity
100
AcDbMText
  8
CADDY_1
 62
256
370
-1
  6
ByLayer
 10
114.9850082397460938
 20
143.8600000739097879
 30
0.0
 40
2.5725002586841579
 41
100.0
 71
7
 72
2
  1

  7
CADDY_VECTORFONT1P
 50
0.0
 73
0
 44
1.0
  0
MTEXT
  5
71C
100
AcDbEntity
100
AcDbMText
  8
CADDY_1
 62
256
370
-1
  6
ByLayer
 10
144.9850006103515909
 20
143.8600000739097879
 30
0.0
 40
2.5725002586841579
 41
100.0
 71
7
 72
2
  1
30
  7
CADDY_VECTORFONT1P
 50
0.0
 73
0
 44
1.0
  0
MTEXT
  5
71D
100
AcDbEntity
100
AcDbMText
  8
CADDY_1
 62
256
370
-1
  6
ByLayer
 10
150.2350006103515909
 20
143.8600000739097879
 30
0.0
 40
2.5725002586841579
 41
100.0
 71
7
 72
2
  1

  7
CADDY_VECTORFONT1P
 50
0.0
 73
0
 44
1.0
  0
MTEXT
  5
71E
100
AcDbEntity
100
AcDbMText
  8
CADDY_1
 62
256
370
-1
  6
ByLayer
 10
335.2499671056867214
 20
143.8600000739097879
 30
0.0
 40
2.5725002586841579
 41
100.0
 71
8
 72
2
  1
24.07.2006
  7
CADDY_VECTORFONT1P
 50
0.0
 73
0
 44
1.0
  0
MTEXT
  5
71F
100
AcDbEntity
100
AcDbMText
  8
CADDY_1
 62
256
370
-1
  6
ByLayer
 10
379.8750128820539089
 20
143.8600000739097879
 30
0.0
 40
2.5725002586841579
 41
100.0
 71
8
 72
2
  1
MK
  7
CADDY_VECTORFONT1P
 50
0.0
 73
0
 44
1.0
  0
MTEXT
  5
720
100
AcDbEntity
100
AcDbMText
  8
CADDY_1
 62
256
370
-1
  6
ByLayer
 10
176.9850158691405966
 20
143.8600000739097879
 30
0.0
 40
2.5725002586841579
 41
100.0
 71
7
 72
2
  1
Eingangsbyte\~IX1
  7
CADDY_VECTORFONT1P
 50
0.0
 73
0
 44
1.0
  0
MTEXT
  5
721
100
AcDbEntity
100
AcDbMText
  8
CADDY_1
 62
256
370
-1
  6
ByLayer
 10
253.3600158691405966
 20
143.8600000739097879
 30
0.0
 40
2.5725002586841579
 41
100.0
 71
7
 72
2
  1

  7
CADDY_VECTORFONT1P
 50
0.0
 73
0
 44
1.0
  0
MTEXT
  5
722
100
AcDbEntity
100
AcDbMText
  8
CADDY_1
 62
256
370
-1
  6
ByLayer
 10
23.6100006103515589
 20
133.8600000739097879
 30
0.0
 40
2.5725002586841579
 41
100.0
 71
7
 72
2
  1
Stromlaufplan
  7
CADDY_VECTORFONT1P
 50
0.0
 73
0
 44
1.0
  0
MTEXT
  5
723
100
AcDbEntity
100
AcDbMText
  8
CADDY_1
 62
256
370
-1
  6
ByLayer
 10
84.9850082397460938
 20
133.8600000739097879
 30
0.0
 40
2.5725002586841579
 41
100.0
 71
7
 72
2
  1

  7
CADDY_VECTORFONT1P
 50
0.0
 73
0
 44
1.0
  0
MTEXT
  5
724
100
AcDbEntity
100
AcDbMText
  8
CADDY_1
 62
256
370
-1
  6
ByLayer
 10
114.9850082397460938
 20
133.8600000739097879
 30
0.0
 40
2.5725002586841579
 41
100.0
 71
7
 72
2
  1

  7
CADDY_VECTORFONT1P
 50
0.0
 73
0
 44
1.0
  0
MTEXT
  5
725
100
AcDbEntity
100
AcDbMText
  8
CADDY_1
 62
256
370
-1
  6
ByLayer
 10
144.9850006103515909
 20
133.8600000739097879
 30
0.0
 40
2.5725002586841579
 41
100.0
 71
7
 72
2
  1
31
  7
CADDY_VECTORFONT1P
 50
0.0
 73
0
 44
1.0
  0
MTEXT
  5
726
100
AcDbEntity
100
AcDbMText
  8
CADDY_1
 62
256
370
-1
  6
ByLayer
 10
150.2350006103515909
 20
133.8600000739097879
 30
0.0
 40
2.5725002586841579
 41
100.0
 71
7
 72
2
  1

  7
CADDY_VECTORFONT1P
 50
0.0
 73
0
 44
1.0
  0
MTEXT
  5
727
100
AcDbEntity
100
AcDbMText
  8
CADDY_1
 62
256
370
-1
  6
ByLayer
 10
335.2499671056867214
 20
133.8600000739097879
 30
0.0
 40
2.5725002586841579
 41
100.0
 71
8
 72
2
  1
24.07.2006
  7
CADDY_VECTORFONT1P
 50
0.0
 73
0
 44
1.0
  0
MTEXT
  5
728
100
AcDbEntity
100
AcDbMText
  8
CADDY_1
 62
256
370
-1
  6
ByLayer
 10
379.8750128820539089
 20
133.8600000739097879
 30
0.0
 40
2.5725002586841579
 41
100.0
 71
8
 72
2
  1
MK
  7
CADDY_VECTORFONT1P
 50
0.0
 73
0
 44
1.0
  0
MTEXT
  5
729
100
AcDbEntity
100
AcDbMText
  8
CADDY_1
 62
256
370
-1
  6
ByLayer
 10
176.9850158691405966
 20
133.8600000739097879
 30
0.0
 40
2.5725002586841579
 41
100.0
 71
7
 72
2
  1
Eingangsbyte\~IX2
  7
CADDY_VECTORFONT1P
 50
0.0
 73
0
 44
1.0
  0
MTEXT
  5
72A
100
AcDbEntity
100
AcDbMText
  8
CADDY_1
 62
256
370
-1
  6
ByLayer
 10
253.3600158691405966
 20
133.8600000739097879
 30
0.0
 40
2.5725002586841579
 41
100.0
 71
7
 72
2
  1

  7
CADDY_VECTORFONT1P
 50
0.0
 73
0
 44
1.0
  0
MTEXT
  5
72B
100
AcDbEntity
100
AcDbMText
  8
CADDY_1
 62
256
370
-1
  6
ByLayer
 10
23.6100006103515589
 20
123.8600000739098022
 30
0.0
 40
2.5725002586841579
 41
100.0
 71
7
 72
2
  1
Stromlaufplan
  7
CADDY_VECTORFONT1P
 50
0.0
 73
0
 44
1.0
  0
MTEXT
  5
72C
100
AcDbEntity
100
AcDbMText
  8
CADDY_1
 62
256
370
-1
  6
ByLayer
 10
84.9850082397460938
 20
123.8600000739098022
 30
0.0
 40
2.5725002586841579
 41
100.0
 71
7
 72
2
  1

  7
CADDY_VECTORFONT1P
 50
0.0
 73
0
 44
1.0
  0
MTEXT
  5
72D
100
AcDbEntity
100
AcDbMText
  8
CADDY_1
 62
256
370
-1
  6
ByLayer
 10
114.9850082397460938
 20
123.8600000739098022
 30
0.0
 40
2.5725002586841579
 41
100.0
 71
7
 72
2
  1

  7
CADDY_VECTORFONT1P
 50
0.0
 73
0
 44
1.0
  0
MTEXT
  5
72E
100
AcDbEntity
100
AcDbMText
  8
CADDY_1
 62
256
370
-1
  6
ByLayer
 10
144.9850006103515909
 20
123.8600000739098022
 30
0.0
 40
2.5725002586841579
 41
100.0
 71
7
 72
2
  1
32
  7
CADDY_VECTORFONT1P
 50
0.0
 73
0
 44
1.0
  0
MTEXT
  5
72F
100
AcDbEntity
100
AcDbMText
  8
CADDY_1
 62
256
370
-1
  6
ByLayer
 10
150.2350006103515909
 20
123.8600000739098022
 30
0.0
 40
2.5725002586841579
 41
100.0
 71
7
 72
2
  1

  7
CADDY_VECTORFONT1P
 50
0.0
 73
0
 44
1.0
  0
MTEXT
  5
730
100
AcDbEntity
100
AcDbMText
  8
CADDY_1
 62
256
370
-1
  6
ByLayer
 10
335.2499671056867214
 20
123.8600000739098022
 30
0.0
 40
2.5725002586841579
 41
100.0
 71
8
 72
2
  1
28.08.2006
  7
CADDY_VECTORFONT1P
 50
0.0
 73
0
 44
1.0
  0
MTEXT
  5
731
100
AcDbEntity
100
AcDbMText
  8
CADDY_1
 62
256
370
-1
  6
ByLayer
 10
379.8750128820539089
 20
123.8600000739098022
 30
0.0
 40
2.5725002586841579
 41
100.0
 71
8
 72
2
  1
MK
  7
CADDY_VECTORFONT1P
 50
0.0
 73
0
 44
1.0
  0
MTEXT
  5
732
100
AcDbEntity
100
AcDbMText
  8
CADDY_1
 62
256
370
-1
  6
ByLayer
 10
176.9850158691405966
 20
123.8600000739098022
 30
0.0
 40
2.5725002586841579
 41
100.0
 71
7
 72
2
  1
Eingangsbyte\~IX2
  7
CADDY_VECTORFONT1P
 50
0.0
 73
0
 44
1.0
  0
MTEXT
  5
733
100
AcDbEntity
100
AcDbMText
  8
CADDY_1
 62
256
370
-1
  6
ByLayer
 10
253.3600158691405966
 20
123.8600000739098022
 30
0.0
 40
2.5725002586841579
 41
100.0
 71
7
 72
2
  1

  7
CADDY_VECTORFONT1P
 50
0.0
 73
0
 44
1.0
  0
MTEXT
  5
734
100
AcDbEntity
100
AcDbMText
  8
CADDY_1
 62
256
370
-1
  6
ByLayer
 10
23.6100006103515589
 20
113.8600000739098022
 30
0.0
 40
2.5725002586841579
 41
100.0
 71
7
 72
2
  1
Stromlaufplan
  7
CADDY_VECTORFONT1P
 50
0.0
 73
0
 44
1.0
  0
MTEXT
  5
735
100
AcDbEntity
100
AcDbMText
  8
CADDY_1
 62
256
370
-1
  6
ByLayer
 10
84.9850082397460938
 20
113.8600000739098022
 30
0.0
 40
2.5725002586841579
 41
100.0
 71
7
 72
2
  1

  7
CADDY_VECTORFONT1P
 50
0.0
 73
0
 44
1.0
  0
MTEXT
  5
736
100
AcDbEntity
100
AcDbMText
  8
CADDY_1
 62
256
370
-1
  6
ByLayer
 10
114.9850082397460938
 20
113.8600000739098022
 30
0.0
 40
2.5725002586841579
 41
100.0
 71
7
 72
2
  1

  7
CADDY_VECTORFONT1P
 50
0.0
 73
0
 44
1.0
  0
MTEXT
  5
737
100
AcDbEntity
100
AcDbMText
  8
CADDY_1
 62
256
370
-1
  6
ByLayer
 10
144.9850006103515909
 20
113.8600000739098022
 30
0.0
 40
2.5725002586841579
 41
100.0
 71
7
 72
2
  1
33
  7
CADDY_VECTORFONT1P
 50
0.0
 73
0
 44
1.0
  0
MTEXT
  5
738
100
AcDbEntity
100
AcDbMText
  8
CADDY_1
 62
256
370
-1
  6
ByLayer
 10
150.2350006103515909
 20
113.8600000739098022
 30
0.0
 40
2.5725002586841579
 41
100.0
 71
7
 72
2
  1

  7
CADDY_VECTORFONT1P
 50
0.0
 73
0
 44
1.0
  0
MTEXT
  5
739
100
AcDbEntity
100
AcDbMText
  8
CADDY_1
 62
256
370
-1
  6
ByLayer
 10
335.2499671056867214
 20
113.8600000739098022
 30
0.0
 40
2.5725002586841579
 41
100.0
 71
8
 72
2
  1
24.07.2006
  7
CADDY_VECTORFONT1P
 50
0.0
 73
0
 44
1.0
  0
MTEXT
  5
73A
100
AcDbEntity
100
AcDbMText
  8
CADDY_1
 62
256
370
-1
  6
ByLayer
 10
379.8750128820539089
 20
113.8600000739098022
 30
0.0
 40
2.5725002586841579
 41
100.0
 71
8
 72
2
  1
MK
  7
CADDY_VECTORFONT1P
 50
0.0
 73
0
 44
1.0
  0
MTEXT
  5
73B
100
AcDbEntity
100
AcDbMText
  8
CADDY_1
 62
256
370
-1
  6
ByLayer
 10
176.9850158691405966
 20
113.8600000739098022
 30
0.0
 40
2.5725002586841579
 41
100.0
 71
7
 72
2
  1
Ausgangsbyte\~QX1
  7
CADDY_VECTORFONT1P
 50
0.0
 73
0
 44
1.0
  0
MTEXT
  5
73C
100
AcDbEntity
100
AcDbMText
  8
CADDY_1
 62
256
370
-1
  6
ByLayer
 10
253.3600158691405966
 20
113.8600000739098022
 30
0.0
 40
2.5725002586841579
 41
100.0
 71
7
 72
2
  1

  7
CADDY_VECTORFONT1P
 50
0.0
 73
0
 44
1.0
  0
MTEXT
  5
73D
100
AcDbEntity
100
AcDbMText
  8
CADDY_1
 62
256
370
-1
  6
ByLayer
 10
23.6100006103515589
 20
103.8600000739098022
 30
0.0
 40
2.5725002586841579
 41
100.0
 71
7
 72
2
  1
Stromlaufplan
  7
CADDY_VECTORFONT1P
 50
0.0
 73
0
 44
1.0
  0
MTEXT
  5
73E
100
AcDbEntity
100
AcDbMText
  8
CADDY_1
 62
256
370
-1
  6
ByLayer
 10
84.9850082397460938
 20
103.8600000739098022
 30
0.0
 40
2.5725002586841579
 41
100.0
 71
7
 72
2
  1

  7
CADDY_VECTORFONT1P
 50
0.0
 73
0
 44
1.0
  0
MTEXT
  5
73F
100
AcDbEntity
100
AcDbMText
  8
CADDY_1
 62
256
370
-1
  6
ByLayer
 10
114.9850082397460938
 20
103.8600000739098022
 30
0.0
 40
2.5725002586841579
 41
100.0
 71
7
 72
2
  1

  7
CADDY_VECTORFONT1P
 50
0.0
 73
0
 44
1.0
  0
MTEXT
  5
740
100
AcDbEntity
100
AcDbMText
  8
CADDY_1
 62
256
370
-1
  6
ByLayer
 10
144.9850006103515909
 20
103.8600000739098022
 30
0.0
 40
2.5725002586841579
 41
100.0
 71
7
 72
2
  1
34
  7
CADDY_VECTORFONT1P
 50
0.0
 73
0
 44
1.0
  0
MTEXT
  5
741
100
AcDbEntity
100
AcDbMText
  8
CADDY_1
 62
256
370
-1
  6
ByLayer
 10
150.2350006103515909
 20
103.8600000739098022
 30
0.0
 40
2.5725002586841579
 41
100.0
 71
7
 72
2
  1

  7
CADDY_VECTORFONT1P
 50
0.0
 73
0
 44
1.0
  0
MTEXT
  5
742
100
AcDbEntity
100
AcDbMText
  8
CADDY_1
 62
256
370
-1
  6
ByLayer
 10
335.2499671056867214
 20
103.8600000739098022
 30
0.0
 40
2.5725002586841579
 41
100.0
 71
8
 72
2
  1
28.08.2006
  7
CADDY_VECTORFONT1P
 50
0.0
 73
0
 44
1.0
  0
MTEXT
  5
743
100
AcDbEntity
100
AcDbMText
  8
CADDY_1
 62
256
370
-1
  6
ByLayer
 10
379.8750128820539089
 20
103.8600000739098022
 30
0.0
 40
2.5725002586841579
 41
100.0
 71
8
 72
2
  1
MK
  7
CADDY_VECTORFONT1P
 50
0.0
 73
0
 44
1.0
  0
MTEXT
  5
744
100
AcDbEntity
100
AcDbMText
  8
CADDY_1
 62
256
370
-1
  6
ByLayer
 10
176.9850158691405966
 20
103.8600000739098022
 30
0.0
 40
2.5725002586841579
 41
100.0
 71
7
 72
2
  1
Ausgangsbyte\~QX1
  7
CADDY_VECTORFONT1P
 50
0.0
 73
0
 44
1.0
  0
MTEXT
  5
745
100
AcDbEntity
100
AcDbMText
  8
CADDY_1
 62
256
370
-1
  6
ByLayer
 10
253.3600158691405966
 20
103.8600000739098022
 30
0.0
 40
2.5725002586841579
 41
100.0
 71
7
 72
2
  1

  7
CADDY_VECTORFONT1P
 50
0.0
 73
0
 44
1.0
  0
MTEXT
  5
746
100
AcDbEntity
100
AcDbMText
  8
CADDY_1
 62
256
370
-1
  6
ByLayer
 10
23.6100006103515589
 20
93.8600000739097595
 30
0.0
 40
2.5725002586841579
 41
100.0
 71
7
 72
2
  1
Stromlaufplan
  7
CADDY_VECTORFONT1P
 50
0.0
 73
0
 44
1.0
  0
MTEXT
  5
747
100
AcDbEntity
100
AcDbMText
  8
CADDY_1
 62
256
370
-1
  6
ByLayer
 10
84.9850082397460938
 20
93.8600000739097595
 30
0.0
 40
2.5725002586841579
 41
100.0
 71
7
 72
2
  1

  7
CADDY_VECTORFONT1P
 50
0.0
 73
0
 44
1.0
  0
MTEXT
  5
748
100
AcDbEntity
100
AcDbMText
  8
CADDY_1
 62
256
370
-1
  6
ByLayer
 10
114.9850082397460938
 20
93.8600000739097595
 30
0.0
 40
2.5725002586841579
 41
100.0
 71
7
 72
2
  1

  7
CADDY_VECTORFONT1P
 50
0.0
 73
0
 44
1.0
  0
MTEXT
  5
749
100
AcDbEntity
100
AcDbMText
  8
CADDY_1
 62
256
370
-1
  6
ByLayer
 10
144.9850006103515909
 20
93.8600000739097595
 30
0.0
 40
2.5725002586841579
 41
100.0
 71
7
 72
2
  1
35
  7
CADDY_VECTORFONT1P
 50
0.0
 73
0
 44
1.0
  0
MTEXT
  5
74A
100
AcDbEntity
100
AcDbMText
  8
CADDY_1
 62
256
370
-1
  6
ByLayer
 10
150.2350006103515909
 20
93.8600000739097595
 30
0.0
 40
2.5725002586841579
 41
100.0
 71
7
 72
2
  1

  7
CADDY_VECTORFONT1P
 50
0.0
 73
0
 44
1.0
  0
MTEXT
  5
74B
100
AcDbEntity
100
AcDbMText
  8
CADDY_1
 62
256
370
-1
  6
ByLayer
 10
335.2499671056867214
 20
93.8600000739097595
 30
0.0
 40
2.5725002586841579
 41
100.0
 71
8
 72
2
  1
24.07.2006
  7
CADDY_VECTORFONT1P
 50
0.0
 73
0
 44
1.0
  0
MTEXT
  5
74C
100
AcDbEntity
100
AcDbMText
  8
CADDY_1
 62
256
370
-1
  6
ByLayer
 10
379.8750128820539089
 20
93.8600000739097595
 30
0.0
 40
2.5725002586841579
 41
100.0
 71
8
 72
2
  1
MK
  7
CADDY_VECTORFONT1P
 50
0.0
 73
0
 44
1.0
  0
MTEXT
  5
74D
100
AcDbEntity
100
AcDbMText
  8
CADDY_1
 62
256
370
-1
  6
ByLayer
 10
176.9850158691405966
 20
93.8600000739097595
 30
0.0
 40
2.5725002586841579
 41
100.0
 71
7
 72
2
  1
Analoge\~Ausg\U+00e4nge\~QW128-131
  7
CADDY_VECTORFONT1P
 50
0.0
 73
0
 44
1.0
  0
MTEXT
  5
74E
100
AcDbEntity
100
AcDbMText
  8
CADDY_1
 62
256
370
-1
  6
ByLayer
 10
253.3600158691405966
 20
93.8600000739097595
 30
0.0
 40
2.5725002586841579
 41
100.0
 71
7
 72
2
  1

  7
CADDY_VECTORFONT1P
 50
0.0
 73
0
 44
1.0
  0
ENDSEC
  0
SECTION
  2
OBJECTS
  0
DICTIONARY
  5
C
100
AcDbDictionary
280
0
281
1
  3
ACAD_GROUP
350
D
  3
ACAD_LAYOUT
350
1A
  3
ACAD_MLINESTYLE
350
17
  3
ACAD_PLOTSETTINGS
350
19
  3
ACAD_PLOTSTYLENAME
350
E
  3
AcDbVariableDictionary
350
74F
  0
DICTIONARY
  5
D
100
AcDbDictionary
280
0
281
1
  0
ACDBDICTIONARYWDFLT
  5
E
100
AcDbDictionary
281
1
  3
Normal
350
F
100
AcDbDictionaryWithDefault
340
F
  0
ACDBPLACEHOLDER
  5
F
  0
DICTIONARY
  5
17
100
AcDbDictionary
280
0
281
1
  3
Standard
350
18
  0
MLINESTYLE
  5
18
100
AcDbMlineStyle
  2
STANDARD
 70
0
  3

 62
256
 51
90.0
 52
90.0
 71
2
 49
0.5
 62
256
  6
BYLAYER
 49
-0.5
 62
256
  6
BYLAYER
  0
DICTIONARY
  5
19
100
AcDbDictionary
280
0
281
1
  0
DICTIONARY
  5
1A
100
AcDbDictionary
281
1
  3
Layout1
350
1E
  3
Layout2
350
26
  3
Model
350
22
  0
LAYOUT
  5
1E
100
AcDbPlotSettings
  1

  2
C:\Program Files\AutoCAD 2002\plotters\DWF ePlot (optimized for plotting).pc3
  4

  6

 40
0.0
 41
0.0
 42
0.0
 43
0.0
 44
0.0
 45
0.0
 46
0.0
 47
0.0
 48
0.0
 49
0.0
140
0.0
141
0.0
142
1.0
143
1.0
 70
688
 72
0
 73
0
 74
5
  7

 75
16
147
1.0
148
0.0
149
0.0
100
AcDbLayout
  1
Layout1
 70
1
 71
1
 10
0.0
 20
0.0
 11
420.0
 21
297.0
 12
0.0
 22
0.0
 32
0.0
 14
100000000000000000000.0
 24
100000000000000000000.0
 34
100000000000000000000.0
 15
-100000000000000000000.0
 25
-100000000000000000000.0
 35
-100000000000000000000.0
146
0.0
 13
0.0
 23
0.0
 33
0.0
 16
1.0
 26
0.0
 36
0.0
 17
0.0
 27
1.0
 37
0.0
 76
0
330
1B
  0
LAYOUT
  5
22
100
AcDbPlotSettings
  1

  2
C:\Program Files\AutoCAD 2002\plotters\DWF ePlot (optimized for plotting).pc3
  4

  6

 40
0.0
 41
0.0
 42
0.0
 43
0.0
 44
0.0
 45
0.0
 46
0.0
 47
0.0
 48
0.0
 49
0.0
140
0.0
141
0.0
142
1.0
143
1.0
 70
1712
 72
0
 73
0
 74
0
  7

 75
0
147
1.0
148
0.0
149
0.0
100
AcDbLayout
  1
Model
 70
1
 71
0
 10
0.0
 20
0.0
 11
12.0
 21
9.0
 12
0.0
 22
0.0
 32
0.0
 14
0.0
 24
0.0
 34
0.0
 15
0.0
 25
0.0
 35
0.0
146
0.0
 13
0.0
 23
0.0
 33
0.0
 16
1.0
 26
0.0
 36
0.0
 17
0.0
 27
1.0
 37
0.0
 76
0
330
1F
  0
LAYOUT
  5
26
100
AcDbPlotSettings
  1

  2
C:\Program Files\AutoCAD 2002\plotters\DWF ePlot (optimized for plotting).pc3
  4

  6

 40
0.0
 41
0.0
 42
0.0
 43
0.0
 44
0.0
 45
0.0
 46
0.0
 47
0.0
 48
0.0
 49
0.0
140
0.0
141
0.0
142
1.0
143
1.0
 70
688
 72
0
 73
0
 74
5
  7

 75
16
147
1.0
148
0.0
149
0.0
100
AcDbLayout
  1
Layout2
 70
1
 71
2
 10
0.0
 20
0.0
 11
12.0
 21
9.0
 12
0.0
 22
0.0
 32
0.0
 14
0.0
 24
0.0
 34
0.0
 15
0.0
 25
0.0
 35
0.0
146
0.0
 13
0.0
 23
0.0
 33
0.0
 16
1.0
 26
0.0
 36
0.0
 17
0.0
 27
1.0
 37
0.0
 76
0
330
23
  0
DICTIONARY
  5
74F
100
AcDbDictionary
281
1
  3
DIMASSOC
350
751
  3
HIDETEXT
350
750
  0
DICTIONARYVAR
  5
750
100
DictionaryVariables
280
0
  1
2
  0
DICTIONARYVAR
  5
751
100
DictionaryVariables
280
0
  1
1
  0
ENDSEC
  0
EOF
